---------------------------------------------------------------------------
The Velvet Underground - Rock and Roll Runaways
---------------------------------------------------------------------------

This seems to be what they are playing throughout most of the song.
Note: There are some strumming variations on the track so I will just post
the chords and you can listen to the track to get down the rhythm.

C A# F G F C

e|-----8---------6--------8--------10--8----8----------
B|-----8---------6--------10-------12--10---8----------
G|-----9---------7--------10-------12--10---9---------- repeat
D|-----10--------8--------10-------12--10---10---------
A|-----10--------8--------8--------10--8----10---------
E|-----8---------6--------------------------8----------


| / slide up
| slide down
| h hammer-on
| p pull-off
| ~ vibrato
| + harmonic
| x Mute note
============================================================================




Ваше мнение



Капча