Date: Mon, 22 Jan 1996 09:30:03 +0100
From: [email protected] (Tauber Klaus)
Subject: TAB: Conquest Of Paradise by Vangelis
Conquest Of Paradise
====================
by Vangelis
Part I
Dm A Dm A C F C Bb A
e--------------------------------------------------------------------|
b--------------------------------------------------------------------|
g------------------------------------2-0-------0---------------------|
D----3-2-0---0-2-------3-2-0---0-2-------3-2-3---2---------0---------|
A--0-------4-----4-0-0-------4-----3---------------3-3-1-3---3-1-0---|
E--------------------------------------------------------------------|
Part II
D G D G D G D A
e--5-7-5-3-3h5-5-7-5-3-3h5-5-7-9-10-10-2-0-2-3-|
b----------------------------------------------|
g----------------------------------------------|
D----------------------------------------------|
A----------------------------------------------|
E----------------------------------------------|
D G D G D G D A
e--5-7-5-3-3h5-5-7-5-3-3h5-5-7-9-10-10-2-0-----|
b----------------------------------------------|
g----------------------------------------------|
D----------------------------------------------|
A----------------------------------------------|
E----------------------------------------------|




Ваше мнение



Капча