Twilight by Vanessa Carlton
tempo moredately slow (90)

tabbed by: polly_monster

intro
(4 bars)
esus f dm7 em esus f dm7 am/e

verse 1:
am/e f dm7 am/e
i was stained by a role in the day not my own
am/e f dm7 am/e
but as you walked into my life, you showed what need-ed to be shown
and i always knew what was right i just didn't know that i might
peel away and coose to see such a different sight.

chorus 1:
C G Am G
and i will never see the sky the same way and
i will learn to say good'bye to yesterday and I
will never cease to fly if held down and
i will always reach too high cause i've seen
f2 gsus
cause i've seen
esus f
twilight
(3 bar break):
dm7 em esus f dm7 am/e

2 verse: chords are the same as first verse
never cared, never wanted,
never sought to see what flaunted.
so on purpose, so in my face,
couldn't see beyond my own place.
it was so easy not to behold what i could hold.
but you taught me i could change
whatever came within these shallow days.

chorus 2:
C G Am G
and i will never see the sky the same way and
i will learn to say good'bye to yesterday and I
will never cease to fly if held down and
i will always reach too high cause i've seen
f2 gsus
cause i've seen........

bridge:
am g
as the sun__ shines through
fmaj7 g am
it pushes away and pushes ahead
it fills the warmth of blue and leaves a chill instead
and i didn't know that i could be so blind to all that is so real
but as illusion dies, i see there is so much to be revealed

a/e

chorus 3:
d a bm a
and i will never see the sky the same way and
d a bm a
i will learn to say good-bye to yesterday and i
will never cease to fly if held down and
i will always reach to high cause i've seen
g2 asus
cause i've seen
asus f#sus g
twilight
(3 bar break)
em7 f#m F#sus g em7 bm/f#

verse 3:
lyrics are the same as first verse but chords are different
bm/f# g em7 bm/f# g em7 bm/f# g em7 bm/f# g em7 bm/f#

chorus 4:
d a bm a (times 4)

g2 asus
cause i've seen
f#sus g
twilight

outro: 7 bars repeated 3 times
em7 f#m (bar 1) f#sus g (bar 2) em7 bm/f# (bar 3) bm9/F# (bar 4)
bm9/f#(bar 5) emm11 (bar 6) gmaj7/a (bar 7)

esus f dm7 em am/e c g f2 gsus asus f#m fmaj7 a bm bm/f#
|---0-----1---1---0----0----0---3---1---3---0----2---0----0--2--2----
|---0-----1---1---0----1----1---0---1---1---3----2---1----2--3--3----
|---2-----2---2---0----2----0---0---0---0---2----2---2----2--4--4----
|---2-----3---0---2----2----2---0---3---0---2----4---3----2--4--4----
|---2-----*---*---2----*----3---2---*---*---0----4---*----0--0--2----
|---0-----*---*---0----*----0---3---*---3---*----2---*----0--0--2----
g2 f#sus em7 bm9/F# em11 gmaj7/4 d a/e
|--3-----2------0---2-------5-----2-----2--0-----------------
|--3-----2------3---2-------8-----0-----3--2-----------------
|--2-----4------0---2-------7-----0-----2--2-----------------
|--0-----4------2---0-------*-----0-----0--2-----------------
|--*-----4------2---2-------7-----*-----*--*-----------------
|--3-----2------0---*-------*-----3-----*--*-----------------

have fun with this beautiful song....sorry if i missed any chords on that chart there ^




Ваше мнение



Капча