heres Vanessa Carlton-1000 miles** this song is usually played on the piano but i tabbed it out
for the guitar sorta like a cover.

------7--------7--6-------6-------------------------------
-0--------0-----------0------7---------4------2------0----
----------------------------------------------------------
----------------------------------------------------------
----------------------------------------------------------
----------------------------------------------------------
----------------------------------------------------------

-----7-------7---6-------6--------------------------------
--------0------------0-------7----0----7-----0----7---0---
----------------------------------------------------------
----------------------------------------------------------
----------------------------------------------------------
----------------------------------------------------------
----------------------------------------------------------

-----------0----------------7--------7--6--------6--------
-----4----------4------0---------0-----------0--------7---
----------------------------------------------------------
----------------------------------------------------------
----------------------------------------------------------
----------------------------------------------------------
----------------------------------------------------------

-----------------------------------------------------2----
--4-----2----0-----4----2----0----4----2-----0------------
----------------------------------------------------------
----------------------------------------------------------
----------------------------------------------------------
----------------------------------------------------------

well thats it! this is my first tab so tell me what you think! l8r all




Ваше мнение



Капча