Intro Use acoustic sound.
Tune 1/2 step down. Play 4 times.
e------------------------------------------------
B------------------------------------------------
G-7---8--10----5---2---7---8--10--10---8---3-----
D-5---6---8----3---0---5---6---8---8---6---1-----
A------------------------------------------------
E------------------------------------------------

Verse
Go back to electric. Play 4 times.
e-------------------------------------------------
B-------------------------------------------------
G-------------------------------------------------
D--8-----6--6--8----10--10--8-----6--6--8-----10--
A--6-----4--4--6-----8---8--6-----4--4--6------8--
E-------------------------------------------------




Ваше мнение



Капча