guitar solo for so this is love
I slowed it down to 3/7 speed and figured out this much
E------------------------------------------------------------
B------------------------9b----------------------------------
G--------------------7---9b-------9b-7----9^10^9-7-----------
D---------------7-^9---9---------------9---------------------
A--------5-7/-9----------------------------------------------
E------------------------------------------------------------

E------10-----------------------------8^-10-^12-10-8----8-----------
B--------10--------*-------8^-10-^12-----------------12---13^12^10--
G----------11^10--10b-----------------------------------------------
D---------------12--------------------------------------------------
A-------------------------------------------------------------------
E-------------------------------------------------------------------
I am unsure of this part below
is it sliding orascending and descending hammers
the rest is pretty clear though
E-----------------------------------------------------------------
B-----------------------------------------------------------*-*-*-
G--12-10/9b-10-r9^8^7s7^8^9b10r9^8^7s7^8^9b10r9^8^7-9br7--7-9-9-7-
D-------------------------------------------------------9---------
A-----------------------------------------------------------------
E-----------------------------------------------------------------
E-----------------------------------------------------------------
B---9^10^13-9^10^9------------------------------------------------
G------------------12-12^10^9^10^9--------------------------------
D---------------------------------12^10^9-------------------------
A-----------------------------------------12^10^98~~-------------
E-----------------------------------------------------------------
stoccato stoccato
E--------------------------------------------------------------------
B----------------------15br------------------------------------------
G-------x-10br-7--7--------12121212--12bh121212r(10)12-10br------10b--
D---7-9----------9-----------------------------------------1210------
A--------------------------------------------------------------------
E--------------------------------------------------------------------


E----------------------13------/13-/13b-/14--etc--------------------
B-------------------13b--13b----------------------------------------
G----------12br(10)-------------------------------------------------
D--12-1210----------------------------------------------------------
A-------------------------------------------------------------------
E-------------------------------------------------------------------




Ваше мнение



Капча