Song : Running With The Devil
Artist: Van Halen
I found some mistakes in the solo part, so i've made
the following changes. I think it's correct.
Guitar Solo :
( 1/2 Step Down Tuning )
|---------|----------------------------------------|
|---------|14-15-17--14-15^14-15^14-14-------------|
|------14-|----------------------------14----------|
|--7/14---|-------------------------------14-------|
|---------|----------------------------------------|
|---------|----------------------------------------|
|---------|----------------------------------------|
|---------|12-14-15--12-13^12-13^12-12-------------|
|------12-|----------------------------12----------|
|--5/12---|-------------------------------12-------|
|---------|----------------------------------------|
|---------|----------------------------------------|
|---------|-------------------19b21~~~~21r19--17---|
|---------|14-15-17--14-15^14----------------------|
|------14-|----------------------------------------|
|--7/14---|----------------------------------------|
|---------|----------------------------------------|
|---------|----------------------------------------|
|---------|--------------14-15-16b18---------------|
|---------|12-14-15--12--15-16-17b19---------------|
|------12-|----------------------------------------|
|--5/12---|----------------------------------------|
|---------|----------------------------------------|
|---------|----------------------------------------|
Pragalbh Vashishth
P.S : If you still find mistakes then please let me know.
Mail me at [email protected]




Ваше мнение



Капча