Date: Mon, 17 Nov 1997 14:17:15 +0100
From: Esteban Quiroga Garza
Subject: Tab: "Respect The Wind" by Van Halen
Respect The Wind
Written by Eddie and Alex Van Halen
Performed By Eddie and Alex Van Halen
This song is an instrumental one and my favorite together with 316....it
comes in the "Twister" soundtrack ...this song has too much
feeling....it took me quite a while to get it tabbed.......I might of
missed a few notes....or a few squeals.....but I tried to tab it as
accurate as possible........just listen to the song and get the feeling
with which Eddie plays the song...........I hope this is of some help
for someone........ok then.....here goes the tablature explanation......
h Hammer On p Pull Off
b Bend 1/2 step B Bend whole step
/ Slide Up \ Slide Down
XXX String Noise (8) Ghost Note
T Tap noted fret ~~~~~~~ Wiggle finger thatґs fretting the note
Note: On the next Bendings strike only the first note
BW Bend note whole step then pull whammy bar upwards
BW/\/\ Bend note whole step then pull whammy bar up and down several
times
18(1/4)(1/2)(1)W Strike note, bend 1/4 step, then 1/2 step, then whole
step then pull whammy bar as much as posible to get a very high pitch.
Guitar "Dirty" (distortion)
e-------------------------------------------------------------------
b-4--6-6/7-6--4-6--6h7--6h7p6---------------------------------------
g----------------------------XXXX--8B///////16p15-------------------
d----------------------------------^bend the note return to normal--
a------------------pitch then bend again and return to normal pitch-
e-----------------------then slide gradually up to th 16th fret-----
e-XX-16h17p16h17---19b--21b--21-21--19b-21p19p18--16h17h19p17p16\14\-
b--------------------------------------------------------------------
g--------------------------------------------------------------------
d--------------------------------------------------------------------
a--------------------------------------------------------------------
e--------------------------------------------------------------------
e--------------------------------------------------------------------
b--14-14-16-16--18-18--19-19--21b-21b--21-19--14-16-16/17-16-14------
g--------------------------------------------------------------------
d--------------------------------------------------------------------
a--------------------------------------------------------------------
e--------------------------------------------------------------------
e--------------------------------------------------------------------
b--------------------------------------------------------------------
g-13h14--11h13p11-------------------15h17-15-------------------------
d-----------------11-13-14-13-11-13----------------------------------
a--------------------------------------------------------------------
e--------------------------------------------------------------------
e-------------------------------------------------------------------
b-------------------------------------------------------------------
g--14-16--17p16p14--------------------------------------------------
d-----------------16-14-16-18-20-21p20-18------16-------------------
a----------------------------------------21-19----------------------
e-------------------------------------------------------------------
e-------------------------------------------------------------------
b------------------------14BW/\/\/\--16-17/18-17--21-21--19-18-19-18
g--------------------21BW-------------------------------------------
d-18h20h21p20p18--16------------------------------------------------
d-------------------------------------------------------------------
a-------------------------------------------------------------------
e-------------------------------------------------------------------
e-------------------------------------------------------------------
b-14-14-16-16-18-18--19-19--21b-21b--21-19--14-16-16/17-16-14-------
g-------------------------------------------------------------------
d-------------------------------------------------------------------
a-------------------------------------------------------------------
e-------------------------------------------------------------------
e-------------------------------------------------------------------
b-------------------------------------------------------------------
g-13h14--11h13p11-----------------15h17-15--13-11-13----------------
d----------------11-13-14-13-11-13------------------11-13-14-13-11--
a-------------------------------------------------------------------
e-------------------------------------------------------------------
e-------------------------------------------------------------------
b-------------------------------------------------------------------
g----15h17-15---16B-16-15--16B--16B-16--16B-(16)-15-----------------
d-13------------------------------------------------15B--14-15------
a-------------------------------------------------------------------
e-------------------------------------------------------------------
e-------------------------------------------------------------------
b--------------------------------14-14--16-16--18-18--19-19--21b-21b
g-13-14--16/17-16-14-16BW/\/\/\/\-----------------------------------
d-------------------------------------------------------------------
a-------------------------------------------------------------------
e-------------------------------------------------------------------
e-------------------------------------------------------------------
b-21-19-14-16-16/17-16-14-------------------------------------------
g------------------------13h14--11h13p11------------------15h17-15--
d----------------------------------------11-13-14-13-11-13----------
a-------------------------------------------------------------------
e-------------------------------------------------------------------
Other bendings on the back-------]
e-------------------------------------------------------------------
b-----------19BW/\/\/\/\/\------------------------------------------
g-----16BW-------------------XXXX-------------------15-15-17-17-----
d-------------------------------------17-17-19-19-------------------
a---------------------------------15B-------------------------------
e-------------------------------------------------------------------
e-------------------------------------------------------------------
b-19-19-21-21-14-14-16-16-18-18-19-19-21b-21b-----------------------
g-------------------------------------------------------------------
d-------------------------------------------------------------------
a-------------------------------------------------------------------
e-------------------------------------------------------------------
e-------------------------------------------------------------------
b-------------------------------19-19-21-21-14-14-16-16-------------
g-------------------15-15-17-17-------------------------------------
d-------17-17-19-19-------------------------------------------------
a---15B-------------------------------------------------------------
e-------------------------------------------------------------------
e-------------------------------------------------------------------
b-18-18-19-19-21b-21b-21-19-14-16-16/17-16-14-----------------------
g-------------------------------------------------------------------
d-------------------------------------------------------------------
a-------------------------------------------------------------------
e-------------------------------------------------------------------
e-------------------------------------------------------------------
b-------------------------------------------------------------------
g-13h14--11h13p11-----------------15h17-15--16B-16B-15~~~~~~--XXXX--
d----------------11-13-14-13-11-13----------------------------------
a-------------------------------------------------------------------
e-------------------------------------------------------------------
e-------------------------------------------------------------------
b---------------------------16-16--18-18--19-19--21BW/\/\/\/\/\-----
g-15-15-17-17---15-15--17-17----------------------------------------
d-------------------------------------------------------------------
a-------------------------------------------------------------------
e-------------------------------------------------------------------
e-------------------------------------------------------------------
b-14-14--16-16--18-18--19-19--21b-21b--21-19--14-16-16/17-16-14-----
g-------------------------------------------------------------------
d-------------------------------------------------------------------
a-------------------------------------------------------------------
e-------------------------------------------------------------------
e-------------------------------------------------------------------
b-------------------------------------------------------------------
g-13h14--11h13p11------------------15h17-15-------------------------
d-----------------11-13-14-13-11-13---------------------------------
a-------------------------------------------------------------------
e-------------------------------------------------------------------
e--18BW/\/\/\/\---------------------16-17-16-17-16-17--19-21B-------
b--------------16-18-18/19-21B-(21)---------------------------------
g-------------------------------------------------------------------
d-------------------------------------------------------------------
a-------------------------------------------------------------------
e-------------------------------------------------------------------
e-(18)-T21h19p18T21h19p18T21h19p18T21h19p18-------------------------
b------------------------------------------18-19--21p19p18----------
g----------------------------------------------------------19B------
d-------------------------------------------------------------------
a-------------------------------------------------------------------
e-------------------------------------------------------------------
e(18)-T21h19p18T21h19p18T21h19p18T21h19p18-(16)-T19h18p16T19h18p16T19
b-------------------------------------------------------------------
g-------------------------------------------------------------------
d-------------------------------------------------------------------
a-------------------------------------------------------------------
e-------------------------------------------------------------------
[Played really fast....................]
e-h18p16T19h18-------------18-18-18-18-19-19-19-19-21-21-21-21-21B--
b--------------21B-21\19\18-----------------------------------------
g-------------------------------------------------------------------
d-------------------------------------------------------------------
a-------------------------------------------------------------------
e-------------------------------------------------------------------
e-(18)-T21h19p18T21h19p18T21h19--(16)-T19h18p16T19h18p16T19h18p16---
b-------------------------------------------------------------------
g-------------------------------------------------------------------
d-------------------------------------------------------------------
a-------------------------------------------------------------------
e-------------------------------------------------------------------
[Hold first bend, then
pick
2X bent note]
e-(14)T18h16p14----------------18-18-19--21b21b21b------------------
b---------------17B-(17)--17-16-------------------------------------
g-------------------------------------------------------------------
d-------------------------------------------------------------------
a-------------------------------------------------------------------
e-------------------------------------------------------------------
e-(18)-T21h19p18T21h19p18T21h19--(16)-T19h18p16T19h18p16T19h18p16---
b-------------------------------------------------------------------
g-------------------------------------------------------------------
d-------------------------------------------------------------------
a-------------------------------------------------------------------
e-------------------------------------------------------------------
e21B-21B-21B-(21)-19-18-16-------------16b-16h18h19p18p16h18-18BW/\/\
b-------------------------13h14p13-11-13----------------------------
g-------------------------------------------------------------------
d-------------------------------------------------------------------
a-------------------------------------------------------------------
e-------------------------------------------------------------------
e-------------------------------19/21BW-----------------------------
b--14-16-18-16-14--18-19-18-16--------------------------------------
g-------------------------------------------------------------------
d-------------------------------------------------------------------
a-------------------------------------------------------------------
e-------------------------------------------------------------------
e---------------------------19/21-19B-21BW---19---------------------
b--14-16-18-16-14--18-19--------------------------------------------
g-------------------------------------------------------------------
d-------------------------------------------------------------------
a-------------------------------------------------------------------
e-------------------------------------------------------------------
e----------------------18(1/4)(1/2)(1)W-19(1/4)(1/2)(1)W------------
b14-16-18-16-14-18-19-----------------------------------------------
g-------------------------------------------------------------------
d-------------------------------------------------------------------
a-------------------------------------------------------------------
e-------------------------------------------------------------------
e-21(1/4)(1/2)(1)W-22(1/4)(1/2)(1)W/\/\/\/\/\----Fade Out
b-------------------------------------------------------------------
g-------------------------------------------------------------------
d-------------------------------------------------------------------
a-------------------------------------------------------------------
e-------------------------------------------------------------------
Hope you have enjoyed this song as much as I did....... it will sound
better (in my case) if an equalizer is used and a guitar with relly good
pick-ups to get those really high pitches......thatґs it for todays Van
Halen lesson......
If the notes arenґt correct....at least they will give you a pretty good
idea.......any comments suggestions, corrections,
blah..blah.blah.....you can contact me at...... [email protected]...z
ya!




Ваше мнение



Капча