PUT OUT THE LIGHTS
Van Halen,Unreleased
Studio Demo,1977
tabbed by [email protected]
http://jax.jaxnet.com/~dsale
intro,chorus
------------------------------------------------------------------------
-------7-----------------------------------------7--------3h5p3p5p3p5p3----------------
9------7---------------9---------2---------9-----7----------------------------
9------7--7--7---------9---------2--2--4---9-----7----4/6----------------------------
7--9-------------9-11------3--4------------7--9--5--------------------------------
---7---------------------------------------0--7----------------------------
verses "fast eddie 's getin ready he's got.."
-3-3----------------------------------------------------------------------
-3-2----------------------------------------------------------------------
---------2-------------------2----------------------2----------------------
---------2-------------------2----------------------2----------------------
---------0-------------------0----------------------0----------------------
------------2-----------0-2--------3--2--0----10\------2-------------0-------------
/1 hes young and he's crazy
-------------------------|---2-2---------------------3-------\---------------
-------------------------|---3-3---------------------3-------\---------------
----2--4-4----2h4p2h4----|---2-2---------------------2-------\-------------------------
----2--------------------|------------------------------------------------
----0--------------------|------------------------------------------------
-2-----------------------|------------------------------------------------
when it comes to a bout that time
------------------------------------------------------------------------
--------0--------0----------0-------------------------------------------
------------------------------------------------------------------------
-----4--------4----------4----------------------------------------------
-2---------0-------------------4----------------------------------------
----------------------4--------2----------------------------------------
solo
/1/2
------------------------------------------------------------------------
--------2------p0-------3--2-----3-2--------------8---h7p5----8---------
---0----------------0---------2------2--0h2-0--------------5--7--7------
---0----------------------------------------------------------7---------
------------------------------------------------------------------------
------------------------------------------------------------------------
trem.pickin,up 1/2 step *full
------------------------------------------------------------------------
-------------------------------------------------13------13-13-14--15---
-7h9-7~------9----9--7---9--------5------2-5----*15~~----15-15-16--17---
----------------------------------------------3-------------------------
------------------------------------------------------------------------
------------------------------------------------------------------------

------------------------------------------------------------------------
------------------------------------------------------------------------
------------------------------------------------------------------------
------------------------------------------------------------------------
------------------------------------------------------------------------
------------------------------------------------------------------------

------------------------------------------------------------------------
------------------------------------------------------------------------
------------------------------------------------------------------------
------------------------------------------------------------------------
------------------------------------------------------------------------
------------------------------------------------------------------------

------------------------------------------------------------------------
------------------------------------------------------------------------
------------------------------------------------------------------------
------------------------------------------------------------------------
------------------------------------------------------------------------
------------------------------------------------------------------------

------------------------------------------------------------------------
------------------------------------------------------------------------
------------------------------------------------------------------------
------------------------------------------------------------------------
------------------------------------------------------------------------
------------------------------------------------------------------------

------------------------------------------------------------------------
------------------------------------------------------------------------
------------------------------------------------------------------------
------------------------------------------------------------------------
------------------------------------------------------------------------
------------------------------------------------------------------------

------------------------------------------------------------------------
------------------------------------------------------------------------
------------------------------------------------------------------------
------------------------------------------------------------------------
------------------------------------------------------------------------
------------------------------------------------------------------------




Ваше мнение



Капча