LITTLE GUITARS
Van Halen,Diver Down
tab by [email protected]
tuning: regular,exept AFTER intro, low E = D (dropped D tuning)
INTRO.
harm.
---0------0-------------0-----------------0---0---------12----------------0-----
---0---------0-------------0--------------0------0----------0-------------0-----
---11-----------11------------11--11--13--13--------13--------------------9-----
---12---------------12------------12--14--14-----------------------7--10--10----
---12-----------------------------12--14--14-----------------------7--10--10----
---0--------------------------------------0--------------------12---------0-----

0------------0-----------0--------0--------|
---0------------0-----0-----0-----0--------|
------9------------9--7--------7--9--7--6--|
---------10-----------9-----------9--7--7--|
----------------------9-----------0-----0--|
----------------------------------------0--|
* - pick as fast as possible,while fretting the lower notes.
0-------------------------------------------------------------------------------
--------------------------------------------------------------------------------
--------------------------------------------------------------------------------
--------------------------------------------------------------------------------
--------------------------------------------------------------------------------
----h0-----4-----7-----8/12-----12-----10-----8-----7-----------0-----4---------

--------------------------------------------------------------------------------
--------------------------------------------------------------------------------
--------------------------------------------------------------------------------
---------------------------9----------------------------------------------------
-----------------------10-------------------------------------------------------
7-----8-----10-----12------------0-----4--7-----8/12--------12-----10-----8-----

------------------------------------------------------------|
----------------------------*0------------------------------|
----------------------------------------------*0------------|
------------------------------------------------------------|
------------------------------------------------------------|
---12-----10-----8-----7-----7--------7--8--7--8--8--10--8--|

0---0---------0---0----------------------------0-----------0--------------------
0------0------0------0---------0------------0-----0-----------0-----------------
11--------11--9---------9---------9---------0--------0-----------0--------------
0-------------10-----------10--------10-----3-----------3-----------3-----------
--------------------------------------------3-----------------------------------
10------------8-----------------------------1-----------------------------------

---------0-----------------------------0-----------0-----------------------0----
------------0--------0--------------0-----0-----------0-------------------------
------0--------0--------0-----------0--------0-----------0--------------0-------
---4--------------4--------4--------3-----------3-----------3--------4----------
2-----------------------------------3-----------------------------2-------------
------------------------------------1-------------------------------------------
harm..
------------------------0-----------0-----------0-----0--------5--|
0--------0-----------------0-----------------0-----0--0--5--7-----|
---0--------0--------5--------5--------5-----7--------6-----------|
------4--------4-----3-----------3--------3--5--------5-----------|
---------------------0-----------------------0--------0-----------|
------------------------------------------------------------------|
THE SONG.
w/flanger / distortion
drop d tuning begins here.
--------------------------------------------------------------------------------
--------------------------------------------------------------------------------
--------------------------------------------------------------------------------
--------------------------------------------------------------------------------
3/2/3--3/5--5--2p0--3--3/2--------3-----0--3/2/3--3/5--5--2p0--3--3/2~~~--3-----
----------------------------0--x--0--x--0---------------------------------------

--------------------------------------------------------------------------------
--------------------------------------------------------------------------------
--------------------------------------------------------------------------------
--------------------------------------------------------------------------------
3--3/2/3--3/5--5--2p0--3--3/2-----3-----------3/2/3--3/5--5--2p0--3--3--2-------
-------------------------------0-----x--0--0------------------------------------

--------------------------------|
--------------------------------|
--------------------------------|
--------------------------------|
~~~--3/2/3--3/2/3--3/5--5--2p0--|
--------------------------------|

5--5--------5-----------5--------5-----5-----3--3--3--------3-------------------
8--7--------5-----------5--------5--5--5-----6--6--5--------3--------5--5--3----
7--7--------6-----------6--------6--7--6-----5--5--5--------4--------3--3--3----
------0--0-----0--0--0-----0--0-----------0-----------0--0-----0--0--3--3-------
--------------------------------------------------------------------------------
--------------------------------------------------------------------------------
(repeat twice)
--------------------------------------------------------------------------------
--------------------------------------------------------------------------------
---------0--------0--------------0----------------------------------------------
------0--------0--------------------0--------------0--------0--------------0----
2--3--------2--------2--3--2--1-----------------0--------0----------------------
---------------------------------------0--2--3--------2--------2--3--2--1-------

---------------0--------------------------0-------------------------------------
---------0--0-----0--------------0--0--0-----0----------------------------------
---------0--0--------0--------0--4--4--4--------4-----------4-----5-------------
---------3--3-----------3--3--3--4--4--4-----------4--------4-----3-------------
0--------3--3--------------3--3--2--2--2-----------------------0--0-------------
---------3--3--------------3--3-------------------------------------------------

------------------|-----2--------0--------0--2--------0--3--2-----|-this is the
------------------|--3--3--3-----3--3-----3--3--3-----3--3--3--3--|fingerpicked
------7--6--------|--2-----2--2-----2--2--------2--2-----------2--|part you hear
------5--5--------|--0--------0--------0-----------0--------------|quite often
0--0--0--0--0--0--|-----------------------------------------------|during the
------------------|-----------------------------------------------|song.Its used
many times in
the song,including
at the end.
---3--------3--2--0-----------|-------------------------------------------------
3--3--3-----3--3--3--3--------|-------------------------------------------------
0-----0--0-----------0--------|-------------------------------------------------
------------------------------|-------------------------------------------------
3-----------------------0--0--|-------------------------------------------------
------------------------0--0--|-------------------------------------------------
"Cant grow before im.."
--------------------------------------------------------------------------------
------0--0--0--1--------0--0--0--0--1-----------0--0-----1--1-----0--0--0--0----
------0--0--0--2--2-----0--0--2--0--2-----------0--0-----2--2-----0--0--0--0----
3-----------------3--------------------3-----3-----------------3----------------
3--3-----------------3--------------------3--3--------3-------------------------
3--------------------------------------------3----------------------------------
fingerpicked.

"Senorita do you.."
---------|-----0-----------------------------------------0-----------------|----
0--1-----|--3-----3--------3--2-----0-----------------3-----3--3--2--------|----
0--2-----|--0--------0-----------0-----0-----------0-----------------0-----|----
------0--|--2-----------2-----------------------2-----------------------2--|----
------0--|--0--------------------------------0--------------------------0--|----
---------|-----------------------------------------------------------------|----
catch as catch catch as catch can, anybody in there right mind could
--------------------------------------------------------------------------------
0-----2-----3-----------0-----2--3--------0-----2-----3-----------0-----2-------
0-----0-----0-----------0-----0--0--------0-----0-----0-----------0-----0-------
0-----0-----0-----------0-----0--0--------0-----0-----0-----------0-----0-------
--------------------------------------------------------------------------------
5--5--5--5--5--5--5--5--5--5--5--5--5--5--5--5--5--5--5--5--5--5--5--5--5--5----
see...
------------|
3--2--0-----| OK,thats a good portion of the song.All of it is there
0--0--0-----| but just used in different parts.I didnt do the
0--------0--| solo.Ok any questions/suggestions,whatever,send em to
------------| [email protected]
5-----------| [http://www.jaxnet.com/~dsale]




Ваше мнение



Капча