Don't tune half step down, keep standard tuning!!!!
Intro
|------------------------------------------------------------|
|----------------3---------------------------2---------------|
|----------------2---------------------------2---------------|
|---------0--2---0---------------------------2---------------|X4
|--2--2---------------2--2-----------0---2-------------------|
|------------------------------2--2---------------2--2-------|
Verse
|-----------------------------------------------------------------------|
|-----------------------------------------------------------------------|
|-------------------7\--------------------------------------------------|
|-------------------7\---------------7/--------------7\--------------2/-|X2
|-------------------5\---------------7/--------------7\--------------2/-|
|------------------------------------5/--------------5\-----------------|
Bass: B . . . . . . . F# . . . . . . . A . . . . . . . E . . . . . . .
Chorus
|------------------------------------------------------------
|----------------3---------------------------2---------------
|----------------2---------------------------2---------------
|--------0---2---0---------------------------2---------------
|--2--2---------------2--2-----------0---2-------------------
|------------------------------2--2---------------2--2-------
*Fill 1
-------------------------------------------------------------
-------------------------------------------------------------
----------------0-----------4^F^4-3-4^F^4-3-4^F^4-3----------
----------------0-----------------------------------4--------
------------0-----------------------------------------4-2-1--
--0--0--3------------0--0------------------------------------
-------------------------------------------------------------
----------------3---------------------------2----------------
----------------2---------------------------2----------------
--------0---2---0---------------------------2----------------
--2--2---------------2--2-----------0---2--------------------
------------------------------2--2---------------2--2--------
*Fill 2 - Natural Harmonics Whammy
----------------------------------------------(12)--------------------
-----------------------------------(12)------------(12)-----(7)\/\/\/-
----------------0-------------(11)------(11)------------(7)-----------
----------------0-----------------------------------------------------
------------0---------------------------------------------------------
--0--0--3------------0--0---------------------------------------------
**The harmonics can't be played exactly right in
standard tuning so that's why the harmonics above aren't perfect.
*Remeber though this transciption is still in STANDARD tuning even
though the song is tuned a 1/2 step down!
Verse
Chorus (w/ different fills)
Fill 1:
Whammy Wham.
--------5----------------5------------
-----5-----7\/\/\------5---7\/\/\/\/\-
--6------------------6----------------
--------------------------------------
--------------------------------------
--------------------------------------
Fill 2:
Wham.
------------------------------------
------------------------------------
---------------4/6--4-3-4/6\/\/\----
------2-/4-\2----------------------- Into Solo
---4--------------------------------
------------------------------------




Ваше мнение



Капча