JAMIE'S CRYIN'

TUNE DOWN 1/2 STEP TAB EXPLANAITON
~ = VIBRATO
^ = BEND
()= ARTIFICIAL HARMONICS
P.M.= PALM MUTE
X = MUFFLE STRING
~~~~~~~~~~~~~~~~
E---------------------------------------------------------------|
B------14^-(14)--(14)-(14)-X--15^-12^-12-(12)-(12)-(12)---------|
G----X---------------------X------------------------------------|
D--X------------------------------------------------------------|
A---------------------------------------------------------------|
E---------------------------------------------------------------|
P.M.----| ~~~~~~~~~~ P.M.---------------------------------|
E---------------------------------------------------------------|
B---------------------------------------------------------------|
G---------------------------------------------------------------|
D---------------------------------------------------------------|
A---------------------------------------------------------------|
E-0--0-0--0-0--7-6-5-3-0--0-0--0--0--7-6-5-3--------------------|

E----------------------------------------------------------------|
B-------14^--14--(14)-12--10--10^--10---9-(9)-(9)---------------|
G----X-----------------------------------------------------------|
D--X-------------------------------------------------------------|
A----------------------------------------------------------------|
E----------------------------------------------------------------|
P.M. P.M.---| P.M. P.M.
E-------7-------------0--(0)------------------7----------(0)--(0)-------------------|
B-------7-------------7--(7)------------------7-----------0---(0)-------------------|
G-------7-------------7--(7)------------------7-----------7---(7)-------------------|
D---------------------0--(0)------------------------------0---(0)-------------------|
A---------------------X-----------------------------------5---(5)-------------------|
E--0--------0--0------7--(7)-----7-6-5-3--0------0--0-----7---(7)---7-6-5-3---------|
P.M. P.M.
E---------7---X-X----------------0-0--------7--X-X---------------0----|
B---------7---X-X--7-(7)---X-X---5-5--------7--X-X--------X-X--5------|
G---------7---X-X--7-(7)---X-X---7-7--------7--X-X-7--(7)-X-X--7----7-|
D-------------X-X----------X-X---7-7-----------X-X-7--(7)-X-X--7----7-|
A--------------------------X-X----------------------------X-X---------|
E---0----------------------------------0------------------------------|
P.M. P.M. P.M.
E------7-X-X------------------0--0---------7------------------------------|
B------7-X-X--7--(7)---X--X---5--5---------7-----------0-(0)--------------|
G------7-X-X--7--(7)---X--X---7--7---------7-----------7-(7)--------------|
D--------X-X-----------X--X---7--7---------------------0-(0)--------------|
A----------------------X--X------------------------X----------------------|
E--0----------------------------------O---------0--0---7-(7)---7-6-5-3----|
|CHORUS|
P.M. P.M.
E------------------------------------------7---------0-(0)-------------|
B------------------------------------------7---------7-(7)-------------|
G------------------------------------------7---------7-(7)-------------|
D-------------0-4-2--(2)--2-2-2-X--------------------0-(0)-------------|
A------0-4-2------0--(0)--0-0-0-2--------------------X-----------------|
E---2---------------------------------0--------0-0---7-(7)---7-6-5-3---|
P.M. P.M. ~~~~~~~~~~~~~ P.M.
E-----------7------------------------------------------------7--------0-(0)---|
B-----------7------------------------------------------------7--------7-(7)---|
G-----------7------------------------------------------------7--------7-(7)---|
D---------------------------------------------------------------------0-(0)---|
A---------------------7^-----5--(5)-----X----------------------------5-(5)---|
E-----0----------0----------------------12--7--6--5--3--0-------0-0--7-(7)---|
P.M. P.M. ~~~~~~~~~~~
E-------------------------7----------------------------------------|
B-------------------------7----------------------------------------|
G-------------------------7----------------------------------------|
D------------------------------------------------------------------|
A----------------------------------7^----5-----(5)-----------------|
E-----7--6--5--3--0----------0-------------------------7-6-5-3-----|

E-------------0----------------0------------------0-------------0---0-|
B-----0---0------0-----0--0--------------0---0------0-----0--0--------|
G-----6---7--------7---4--6-------6--6---6---7--------7---4--6-----6--|
D-----7---9------------5--7--------------7---9------------5--7--------|
A---------------------------------------------------------------------|
E---------------------------------------------------------------------|

E-----------0-------------0-------------------------0-------0--------|
B---5---7-----0-----3--5----0-----5--7--------7---------3---5--------|
G---6---7-------7---4--6------6---6--7-----------7------4---6--------|
D---7---9-----------5--7----------7--9------------------5---7--------|
A--------------------------------------------------------------------|
E---------------------------------------------------------------12--|
THEN GO INTO THE CHORUS AGAIN
~~~~~~~~~~~~~~~~~ HAMMER ON
E-------------------------------------------------------------------|
B------------------------------5-------4----5----7--7-5-7-7-5-------|
G------------------------------6--------------------7-7-7-7-7-(7)---|
D------------------------------6------------------------------(7)---|
A-------(5)--------------------4------------------------------------|
E-------------------7---6-5-4---------------------------------------|

E------------------------------------------2--0--2---------------------------|
B--------------4-5---4---------------------2--0--2---------5--4----------7---|
G--------------------------6----------------------------6------6--------7---|
D----------6---------------------------4---------------6----------6------7---|
A-------4---------------------------4--------------------------------5-------|
E--------------------------------2-------------------------------------------|
|EDDIE'S GUITAR SOLO|
~~~~~~~~~~~~~~~
E-------------5-4-----------------------------------------|
B------------------------5--------------------------------|
G---------------------------4-----------------------------|
D---------------------------------------------------------|
A------------------------------------7-----7^---5---------|
E----0---(0)-------------------14-0----0-----------------|

E---------------------0--0-------------------------------------0-0----------|
B---------------------0--0-------------------------------------0-0----------|
G---------------------------------------------------------------------------|
D---------------------------------------------------------------------------|
A-----(5)--(5)-----------------------7----7^--5--(5)-(5)--------------------|
E---------------3-4-----------3-4-0-----0-----------------3-4------3-4------|

E-------------------------------------------------------------------|
B---------9--9^--7--(7)-714-X--------------------------9---9^--7--|
G---------9--9^--7--(7)-714-X--------------------------9---9^--7--|
D-------------------------------------------------------------------|
A---------------------------------5-6-7-(7)-(7)-2-X---------------|
E----0--------------------------------------------------------------|
THEN YOU PLAY THE CHORUS
E-----------------------------------------|
B-----------------------------------------|
G-----------------------------------------|
D----------------------0-4-2---2-2-2-4----|
A---------------0-4-2------0---0-0-0-2----|
E---7--6-5-3-2----------------------------|

THEN YOU PLAY THE BEGINNING THEN YOU PLAY THE CHORUS A FEW TIMES




Ваше мнение



Капча