Intro
Tune 1/2 step down. Play 3 times. Play () on 3rd time.
Use acoustic sound with slight delay.
e---------------------------------------------0-----------------------
B-0---3-5-------0---3-5-------0---3-5------1----3------(7)------------
G-0---3-5-------0---3-5-------0---3-5-------------2-0--(7)------------
D-0---3-5-------0---3-5-------0---3-5----2-------------(5)------------
A-0-------0x-0x-0-------0x-0x-0--------0------------------------------
E---------------------------------------------------------------------

Verse Use electric sound. Play 4 times.
e-----------------------------------------------------0---------------
B--------------------------------------------------1----3-------------
G---------------------------------------------------------2-0---------
D-2----5-7-------2----5-7-------2----5-7---------2--------------------
A-2----5-7-------2----5-7-------2----5-7-------0----------------------
E---0x-----0x-0x---0x-----0x-0x---0x-----0x-0x------------------------




Ваше мнение



Капча