Van Halen-Hot For Teacher
I Know this is 100% rite
I dont hav an email but if u have any ?'s my aim sn is rock n sk8 151
INTRO
When The Guitar Starts It Goes Like This
e|------------------------------------------------|
B|------------------------------------------------|
G|------------------------------------------------|
D|------------------------------------------------|
A|-x/-----x/---10/x--12/0/3/7-12/7/3/0/3/7--------| continue--
E|-x/-----x/--------------------------------------| |
(pick slide) |
-------------------------------------------------------
|
e|------------------------------------------------|
B|------------------------------------------------|
G|------------------------------------------------|
D|------------------------------------------------|
A|-12/7/3/0/3/7-12/7/3/0/3/7-12/7/3/0/5/9---------|continue
E|------------------------------------------------|
e|------------------------------------------------|
B|------------------------------------------------|
G|------------------------------------------------|
D|-------------------------------12/0/3/7---------|continue
A|-12/9/5/0/5/9-12/9/5/0/5/9-12/9-----------------|
E|------------------------------------------------|
e|------------------------------------------------|
B|------------------------------------------------|
G|------------------------------------------------|
D|-12/7/3/0/3/7-12/7/3/0/3/7-12/7/3/0/3/7---------|continue
A|------------------------------------------------|
E|------------------------------------------------|
e|------------------------------------------------|
B|------------------------------------------------|
G|------------------------------------------------|
D|-12/7/3/0/5/9-12/5/9/0/5/9-12/9/5/0/5/9-12/9-9/7|continue
A|------------------------------------------------|
E|------------------------------------------------|
e|------------------------------------------------|
B|------------------------------------------------|
G|-12/0/3/7-12/7/3/0/3/7-12/7/3/0/5/9-12/9/5/0/5/9|continue
D|------------------------------------------------|
A|------------------------------------------------|
E|------------------------------------------------|
e|------------------------------------------------|
B|------------------------------------------------|
G|-12/9/5/0/3/7-12/7/3/0/3/7-12/7/3/0/5/9/12/9----|continue
D|------------------------------------------------|
A|------------------------------------------------|
E|------------------------------------------------|
slide down 2 the B string
e|-12/5/8-12/8/7/5/-------------------------------|
slide 2 the G string haha
B|-----------------8-12/8/7/5/--------------------|
G|----------------------------8-12/8/7/5/---------|
slide down 2 the D string
D|--------------------------------------8-12/8/7/5|slide 2 the A string on
A|------------------------------------------------| the next bar
E|------------------------------------------------|
e|------------------------------------------------|
B|------------------------------------------------|
G|------------------2/2---------------------------|
D|------------------2/2---------------------------|
A|-/8-12/8/7/5/-----x/----------------------------|
E|------------------2/2---------------------------|
e|------------------------------------------------|
B|------------------------------------------------|
G|-----------------5---4-----1---2--1/2---1/2vvvv-|
D|-----------------5---4-----1---2--1/2---1/2vvvv-|
A|------------------------------------------------|
E|-2-2-2-2--2-2-2---------2-----------------------|
e|------------------------------------------------|
B|------------------------------------------------|
G|-------------------------------10/7/4vvv--------|
D|-------------------------------10/7/4vvv--------|
A|------------------------------------------------|
E|-2-2-2-2---2-2-2-2--2-2-2/9---------------------|
e|------------------------------------------------|
B|------------------------------------------------|
G|-1-----2----1/2vvv-------------------------5----|
D|-1-----2----1/2vvv-------------------------5----|
A|------------------------------------------------|
E|-------------------2-2-2-2---2-2-2-2--2--2------|
e|------------------------------------------------|
B|------------------------------------------------|
G|-----4vv---1---2---1/2--------------------------|
D|-----4vv---1---2---1/2----2----------------2----|
A|--------------------------2----------------2----|
E|---------2-------------0--0---0------------0----|
this is wut sum ppl call the d.s. al coda or just plain coda i dont know
e|-----------------------------------------------------|----| i just made
B|-----------------------------------------------------|----| this up so
G|--5---5/2--2vv---5--5/2--2vv--5/2---------5----8/7vv-|-2vv|HERE its
D|--2---2----2vv---2--2----2vv--2-----------5----8/7vv-|-2vv|/HERE easier
A|----------------------------------0/5/6/7------------|----| for me
E|-----------------------------------------------------|----|
e|------------------------------------------------|
B|------------------------------------------------|
G|-5--5/2--2vv--5--5/2--2vv--5/2---------5--8/7vv-|
D|-2--2----2vv--2--2----2vv--2-----------5--8/7vv-|
A|-------------------------------0/5/6/7----------|
E|------------------------------------------------|
e|------------------------------------------------|
B|------------------------------------------------|
G|-2vv--------------------------------------------|go 2 where it says HERE
D|-2vv--------------------------------------------| and play;repeat 3 times
A|------------------------------------------------| then go 2 where i put
E|------------------------------------------------| this is the d.s. al coda
e|------------------------------------------------|
B|------------------------------------------------|
G|-5---5/2---2vv--5--5/2--2vv--5--5/2----0---2vv--|
D|-2---2-----2vv--2--2----2vv--2--2------0---2vv--|
A|-------------------------------------------0vv--|
E|------------------------------------------------|
e|------------------------------------------------|
B|------------------------------------------------|
G|-2--2----2vv------------2vv-----------------5---|
D|-2--2----2vv------------2vv-----------------5---|
A|-3--3/0-------3----3/0------3/0vv--0/5/6/7------|
E|------------------------------------------------|
e|------------------------------------------------|
B|------------------------------------------------|
G|-8/7vv-----2vv----------2vv----------2vv--------|
D|-8/7vv-----2vv----------2vv----------2vv--------|
A|--------0--0vv--3--3/0--0vv--3--3/0--0vv--3/0---|
E|------------------------------------------------|
e|------------------------------------------------|
B|------------------------------------------------|
G|----------5------8/7----2vv---------------------|
D|----------5------8/7----2vv---------------------|
A|-0/5/6/7--------------0-0vv---------------------|
E|------------------------------------------------|
rest 4 a long time and then come in with this
e|------------------------------------------------|
B|----------------------------------------------7-|
G|-----------2vv-----------2vv--------------5-8-7-|
D|-----------2vv-----------2vv--------------5-8-7-|
A|-3--3/0----0vv---3--3/0--0vv--3/0-0/5/6/7-------|
E|------------------------------------------------|
pick scrape
e|------------------------------------------------|
B|-5----------------------------------------------|
G|-5--7vv-------------------13--12--10--12vvvvv---|
D|-5--7vv-------19----------13--12--10--12vvvvv---|
A|----5vv-----------xvv---------------------------|
E|------------------xvv---------------------------|
e|---------------------10-------------------------|
B|-------10vv--12---x--10-------------------------|
G|-12/10-10vv--12---x--10--12--x-----------15-----|
D|-12/10-10vv--12---x--10--12--x---15------15-14--|
A|---------------------------------13--13--13-12--|
E|------------------------------------------------|
e|------------------------------------------------|
B|------------------------------------------------|
G|-14----13--12--11vv--10vv--9--8--9vv/2vv--------|
D|-14-13-13--12--11vv--10vv--9--8--9vv/2vv--------|
A|-12-11-11--10---9vv---8vv--7--6--7vv/0vv--3-3/0-|
E|------------------------------------------------|
e|------------------------------------------------|
B|------------------------------------------------|
G|-2vv----------2vv--------------5--8/7v---2vv----|
D|-2vv----------2vv--------------5--8/7v---2vv----|
A|-0vv--3--3/0--0vv--3/0-0/5/6/7---------0-0vv----|
E|------------------------------------------------|
e|------------------------------------------------|
B|------------------------------------------------|
G|---------2vv---------------------2vv--2---------|go back to coda
D|---------2vv----------------2----2vv--2---------|
A|-3--3/0--0vv-3/0--3/0-------2----2vv--0---------|
E|----------------------0--0--0--0-0vv------------|
when your back from coda to hereit goes in like this...
slide to B string slide to g string
e|--------------12/8/7/5/-------------------------|
B|------------------------8--12/8/7/5/------------|
G|----------2vv-----------------------8-12/8/7/5/-| slide to D string
D|----------2vv----------------------------------8|
A|-3---3/0--0vv-----------------------------------|
E|------------------------------------------------|
you know wut to do
e|------------------------------------------------|
B|------------------------------------------------|
G|------------------------------------------------|
D|-12/8/7/5/--------------------------------------|
A|----------8--12/8/7/5/0vv-----------------------|
E|------------------------------------------------|
guitar solo
e|------------------------------------------------|
B|------------------------------------------------|
G|--4vvvv-(4)/2--4/6--6--6/9--9/11/13--14vvvvvv---|
D|------------------------------------------------|
A|------------------------------------------------|
E|------------------------------------------------|
e|-14------14------------------------14-----------|
B|----17-------14/17/14----14--17/14----14/17/14--|
G|----------------------16----------------------16|
D|------------------------------------------------|
A|------------------------------------------------|
E|------------------------------------------------|
e|------------------------------------------------|
B|-14----14-------------14------------------------|
G|----16----16vv/14--16----14--14vvvv----2--2--2-2|
D|------------------------------------------------|
A|------------------------------------------------|
E|------------------------------------------------|
e|-------------------------2-------2--2-------0-0-|
B|-----------------------2---5/2vv------5/2/0-----|
G|---2----2------2---4----------------------------|
D|-4-----------4----------------------------------|
A|------------------------------------------------|
E|------------------------------------------------|
e|-------0-0---------0-------0----0--------0------|
B|-5/2/0------5/2/0----5/2/0---------5/2/0---5----|
G|------------------------------------------------|
D|------------------------------------------------|
A|------------------------------------------------|
E|------------------------------------------------|
e|-------0------2------------2--------------------|
B|-5/2/0----5------2/5/2-------2------------------|
G|------------------------5------5/4/2--4--2--2---|
D|-----------------------------------------------4|
A|------------------------------------------------|
E|------------------------------------------------|
e|---------------------------------------------12v|
B|---------------------------5---7---9--10--14----|
G|-2vvvv----2-----4---5---6-----------------------|
D|---------x--------------------------------------|
A|--------x---------------------------------------|
E|------------------------------------------------|
e|-14--14--14------14------14---16/14--17/14-19/14|
B|-17------17vvv-------17-------------------------|
G|------------------------------------------------|
D|------------------------------------------------|
A|------------------------------------------------|
E|------------------------------------------------|
e|-----17vv/14----17--16--17--16/17/16/14----14---|
B|-14----------14-------------------------17----17|
G|------------------------------------------------|
D|------------------------------------------------|
A|------------------------------------------------|
E|------------------------------------------------|
e|-------------14----------------14---------------|
B|-17vvv/14-------14/17/14----14----17/14----14-14|
G|----------17-------------16-------------16----16|
D|------------------------------------------------|
A|------------------------------------------------|
E|------------------------------------------------|
e|------------------------------------------------|
B|----14--14------------14------------------------|
G|-16-----16vvvv/14--16-----14--16----14---16/14vv|
D|------------------------------------------------|
A|------------------------------------------------|
E|------------------------------------------------|
e|-----2------------------------------------------|
B|---2----------2---------------------------------|
G|-4-----4vv/2----2vv-4---------------------------|end of solo
D|------------------------------------------------|
A|------------------------------------------------|
E|------------------------------------------------|
e|------------------------------------------------|
B|-5----7vv----7vv--------------------------------|
G|-7----9vv----9vv--------------------------------|go back to the coda thing
D|--------------------2---------------------------|skip solo of course
A|-----------------x/-2---------------------------|
E|-----------------x/-0---------------------------|
e|------------------------------------------------|
B|------------------------------------------------|
G|o-2------------2vv----------2vv-----------------|
D|o-2------------2vv----------2vv-----------------|
A|--0----3--3/0--0vv--3--3/0--0vv-3/0vv-0/5/6/7---|
E|------------------------------------------------|
e|------------------------------------------------|
B|------------------------------------------------|
G|-5----8/7vv-----2------------------------------o|
D|-5----8/7vv-----2------------------------------o|
A|-------------0--0-------------------------------|
E|------------------------------------------------|
e|------------------------------------------------|
B|------------------------------------------------|
G|---------2vv----------2vv----------------5-8/7vv|
D|---------2vv----------2vv----------------5-8/7vv|
A|-3--3/0--0vv--3--3/0--0vv--3/0vv-0/5/6/7--------|
E|------------------------------------------------|
e|------------------------------------------------|
B|--------------------------------------------11--|
G|----2vv----------2vv---------2vv------------11--|
D|----2vv----------2vv---------2vv------------11--|
A|-0--0vv--3--3/0--0vv--3--3/0-0vv--3/0vv-0-0-----|
E|------------------------------------------------|
e|------------------------------------------------|
B|-12vv--13--14vv----------------------11-12vv-13-|
G|-12vv--13--14vv-----------2vv--------11-12vv-13-|
D|-12vv--13--14vv-----------2vv--------11-12vv-13-|
A|-----------------3---3/0--0vv--3/0vv------------|
E|------------------------------------------------|
e|------------------------------------------------|
B|-14vv--------------------------11-12vv-13-14vv--|
G|-14vv-----------2vv------------11-12vv-13-14vv--|
D|-14vv-----------2vv------------11-12vv-13-14vv--|
A|-------3---3/0--0vv--3/0vv-ovv------------------|
E|------------------------------------------------|
palm mute stop
e|-------------------|----------------------------|
B|o11-12vv-13-14vv-o-|----------------------------|
G|-11-12vv-13-14vv---|------------------0--0------|
D|-11-12vv-13-14vv---|--------------x---0--0------|
A|o----------------o-|-x/20-20/22---x-------------|
E|-------------------|--------------x-------------|
e|------------------------------------------------|
B|-0-2-4-5/7-7/12--14--16--17--19--21--21--21--21v|
G|------------------------------------------------|
D|------------------------------------------------|
A|------------------------------------------------|
E|------------------------------------------------|
start finger tapping
e|------------------------------------------------|
B|-/9/9/9/9/9/9/9/---2---2--5---7/14---14/2-------|
G|-------------------2---2--5---7/14---14/2-------|
D|-------------------2---2--5---7/14---14/2-------|
A|-------------------0---0----------------0-------|
E|----------------x-------------------------------|




Ваше мнение



Капча