intro to:Hear abot it later
clean tone with flanger

---------------------------------------------------------------------------------|
---------------------------------------------------------------------------------|
---------2----------4-----------------------------0-----------------2------------|
-----2----------2----------------5------------4------4------------2--------------|
--0---------0-----------0sl--5-------0----5--------------5----0------------------|
---------------------------------------------------------------------------------|

-----------------------------------------------------------------------------|
-----------------------------------------------------------------------------|
-----------4------------------0---------0--------------2-----------4---------|
------2------------------4---------4--------4-------2----------2-------------|
--0-------------0---5---------------------------0----------0-----------------|
-----------------------------------------------------------------------------|

------------------------------------------------------------------------------|
------------------------------------------------------------------------------|
--------------------------------0---------------------------------------------|
------------5--------------4--------4-----------------------------------------|
--0sl---5---------0---5-----------------5-------------------------------------|
------------------------------------------------------------------------------|

this is all for now I will try to figure out the rest later.




Ваше мнение



Капча