#----------------------------------PLEASE NOTE---------------------------------#
#This file is the author's own work and represents their interpretation of the #
#song. You may only use this file for private study, scholarship, or research. #
#------------------------------------------------------------------------------##
Date: Mon, 5 Jun 1995 03:20:47 GMT
FEEL YOUR LOVE
WRITEN AND PREFORMED BY VAN HALEN
TRANSCRIBED BY GORBY @MAGI.COM
This TAB transcription was created using TAB MASTER version 1.0
--------------------------------------------------------------------

INTRO (Part A)
e:----------------------------------------------------------------------|
B:----------------------------------------------------------------------|
G:----------------------------------------------------------------------|
D:-----6------------------------------4---------------------------------|
A:-----7~------5--------4-------------5~-------4--------2---------------|
E:3-4-----r(0)----r(0)-----r(0)-r(0)------------r(0)-----r(0)-----3-4---|
Part B
e:--------------------------------------------------|
B:-----------3-------------------------3------------|
G:2----------2-------------2-----------2------------|
D:2----------2-------------2-----------2------------|
A:0----------0-------------0-----------0------------|
E:---------------------3-4--------------------------|
let ring-----------> let ring----------------|
Part C
e:-----------------------------------------------------------------------|
B:-----------------------------------------------------------------------|
G:-2-2-----2-------2-2-----2--------4--------------------4--16-----------|
D:-2-2--4--2-------2-2--4--2--------4--------------------4-/16-----------|
A:-0-0--0--0--r(0)--0-0--0--0--r(0)---2--------------------2--14---------|
E:-----------------------------------------------------------------------|
^ ^ ^ ^ let ring------------------| let ring
Chorus (Part D)
e:------|---------------------------------------------------------|
B:------|---------------------------------------------------------|
G:------|--------------------------------------------7-9----------|
D:------|------6-------------------------4-----------7/9|---------|
A:------|------7~------5------4----------5~-----4----5-7----------|
E:------|--3-4----r(0)---r(0)-----r(0)r(0)-- ----r(0)---r(0)-----|
Somebody placed a post requesting this song and unfortunatly I accidentaly erased the persons
note from my mailbox-whoever you were, I hope you see this.
That is about the whole song. The only part I left out was the solo section. If you want that
too, let me know and I'll transcribe it. I'm not too sure on how many times you play each part
and where but this is a start anyhow. Enjoy!!
Vibrato Sign: ---6~----|
- Slide Up: ---5/7---|
- Slide Down: ---75---|
- Harmonic sign: ---!12!--|
- Semi Harmonic sign: ---'5'---|
- Left Hand Muting: ---l(5)--|
- Right Hand Muting: ---r(5)--|
- Tremolo: ---{5}---|
- Pick Slide: --p(5/7)-|
- Bend String: --5b(7)--|
- Release from Bending: --(7)b5--|
- Wammy Bar Bend --5w(7)--|




Ваше мнение



Капча