EYES OF THE NIGHT
Van Halen, Unreleased Compilation Volume II
Pasadena,Ca 1976
INTRo tabbed by [email protected]
http://jax.jaxnet.com/~dsale
Ok,i hope someone will complete this,the most important thing that stood
out to me in this tune was the intro,so thats what im tabbing.I have NO
clue as to why they never got this onto an album.its awesome.
they should put it on the NEXT album,w/sammy singing (*hint- hint)
:)
standard tuning, throw in a MXR - phase 90.

p p p p
-------------------------------------------------------------------|
-------------------------------------------------------------------|
-------------------------------------------------------------4--3--|
---0h2--2/4--2--4--5--4--3--2/4\2--2--------------2--4--4/6--------|
--------------------------------------------2--4-------------------|
0-------------------------------------0--0-------------------------|

--------------------------------|
--------------------------------|
3--2--2--1h2p1------------------|
----------------2--1--1---------|
-------------------------0h1--1/|
--------------------------------|
p
----------------------------------------------7--|
-------------------------------------0--7--8-----|
----------------------------------5--------------|
---0h2--2/4--2--4---/5h4h5-----7-----------------|
-------------------------------------------------|
0------------------------------------------------|

---------------------10----------------------------------------|
----------12--12\10------10-----9------------12----------15----|
---12h11------11\9-----------9--------12h11----------14--------|
-------------------------------------------------14------------|
---------------------------------------------------------------|
0----------------------------------0-----------------------\0--|

-----------10------10--------------------------------------------|------
------/10--10--10--10--------------------------------------------|------
--------------------------------------2--2--2--2--2--2--2--2--2--|------
-----------------------7--5--------------------------------------|------
---9h7-----------------------7--5--------------------------------|------
0----------------------------------0-----------------------------|------

-------------------------------|----------------------------------------
5h3p0--5h3p0--5h3p0--5h3p0-----|----------------------------------------
----------------------------2--|----------------------------------------
-------------------------------|----------------------------------------
-------------------------------|----------------------------------------
-------------------------------|----------------------------------------

0-----0-----0--------0-------0-----0--------0-----0-----0-----0---------
---3-----3-----3--3-----0h2-----2-----2--2-----2-----8-----8-----8------
-----------------------------------------------------9-----9-----9------
------------------------------------------------------------------------
------------------------------------------------------------------------
------------------------------------------------------------------------

---0-----0------0------0----------0--0-/0---0---0---0-------------------
8-----8-----10-----10-----10--10-----10-12--12--12--12------------------
9-----9-----11-----11-----11--11-----11-13--13------13------------------
------------------------------------------------------------------------
------------------------------------------------------------------------
------------------------------------------------------------------------




Ваше мнение



Капча