Intro Tune down 1/2 step
Play 8 times
e----------------------------------
B----------------------------------
G----------------------------------
D----------------------------------
A----------------------------------
E-4-4-4-4-4-4-4-4-4-0-0-0-0-0-2-2--
[-----------Palm--Mute----------]

Play 2 times
e---------------------------------------------------------------------
B---------------------------------------------------------------------
G-11-x-11-x-11--7-x-7-x-7--11-x-11-x-11--7---x-x-7--------------------
D-11-x-11-x-11--7-x-7-x-7--11-x-11-x-11--7---x-x-7--------------------
A--9-x--9-x--9--5-x-5-x-5---9-x--9-x--9--5---x-x-5--------------------
E---------------------------------------------------------------------




Ваше мнение



Капча