#---------------------------------YOU BEST NOTE-------------------------------#
#This file is the author's own work and represents their interpretation of the#
#song. You may only use this file for private study, scholarship, or research.#
#-----------------------------------------------------------------------------#
#---------------------------------YOU BEST NOTE-------------------------------#
#This file is the author's own work and represents their interpretation of the#
#song. You may only use this file for private study, scholarship, or research.#
#-----------------------------------------------------------------------------#
Van Halen
Dance the Night Away Solo
by Brian S
Solo: w/phase shifter
TH TH TH TH TH TH
e----------------------------------------------------------|
b--4--5--4--5-------9(21)-9(21)-9(21)-9(21)--7(19)---7(19)-|
g--2--2--2--2-------9(21)-9(21)-9(21)-9(21)--8(20)---8(20)-|
d--2--2-------------9(21)-9(21)-9(21)-9(21)--9(21)---9(21)-|
a----------------------------------------------------------|
e---------------0------------------------------------------|
TH TH TH TH TH TH TH TH TH TH
e------------------------------------------------------------------------|
b--5(17)--5(17)----------------9(21)-9(21)-9(21)-9(21)---5(17)-5(17)--/-|
g--6(18)--------6(18)----------9(21)-9(21)-9(21)-9(21)---6(18)-6(18)--/-|
d--7(19)--------------7(19)----9(21)-9(21)-9(21)-9(21)---7(19)-7(19)--/-|
a------------------------------------------------------------------------|
e----------------------------0-------------------------------------------|
TH TH TH TH TH TH TH TH TH TH
e------------------------------------------------------------------------|
b---7(19)-7(19)-------------------9(21)-9(21)-9(21)-9(21)--7(19)---7(19)-|
g---8(20)-------8(20)-------------9(21)-9(21)-9(21)-9(21)--8(20)---8(20)-|
d---9(21)-------------9(21)-------9(21)-9(21)-9(21)-9(21)--9(21)---9(21)-|
a------------------------------------------------------------------------|
e-----------------------------0------------------------------------------|
TH TH TH TH TH TH TH TH TH TH
e------------------------------------------------------------------------|
b--5(17)--5(17)----------------9(21)-9(21)-9(21)-9(21)---5(17)-5(17)--/-|
g--6(18)--------6(18)----------9(21)-9(21)-9(21)-9(21)---6(18)-6(18)--/-|
d--7(19)--------------7(19)----9(21)-9(21)-9(21)-9(21)---7(19)-7(19)--/-|
a------------------------------------------------------------------------|
e----------------------------0-------------------------------------------|
fade in w/ volume control
e--->>>>>>>>----------------|
b---7(19)------^------------|
g---8(20)--------^----------|
d---9(21)----------^--------|
a--------------------^------|
e----------------------12--|
reverse
rake w/ pick




Ваше мнение



Капча