Band: Van Halen (Eddie Van Halen, Alex Van Halen, Michael Anthony, David Lee Roth)
Song: Cant get this stuff no more
From the album: Best Of, Volume 1
Conact me: [email protected]
-----------------------|----------------|----------
-----------------------|----------------|----------
-----------------------|----------------|----------
12-12--12-12--12--12-12|0-0--0-0--0--0-0|
Above: main riff
---------------------------------------
-----------------------------------------
------3---3---2--------------------------
0-0-0---0---2---5-0----------------
Above: Chorus
-----------------|-------------------|---------------------|
-----------------|-------------------|---------------------|
-----------------|0-0-0-0-0-0-0-0----|---------------------|
3-3-3-5-5-5-5-5-5|----------------6-5|7-7-7-7-7-7-7-7-7-6-5|

-----------|----------------------------
-----------|----------------------------
-----------|------7-7-7-----------------
3-3-3-3-5-5|2-2/9-----------------------

thats pretty much the whole song, Remember the song is
NOT in order so either download the mp3 or buy the cd - www.van-halen.com




Ваше мнение



Капча