Standard tuning
Key : H : hammer on
w/bar : Dip using your wammy bar

[--------------------------------]
[--------------------------------]
[--------------------------------]
[------5----------------------7--]
[---7--------7(h)9--------9---5--]
[-0-----------------------7------]

w/bar-----------------
[---------------------------------]
[---------------------------------]
[------------------7-(7)(7)(7)----]
[------5--------------------------]
[---7--------7(h)9----------------]
[-0-------------------------------]




Ваше мнение



Капча