hey i've seen a few tabs for this song and thought i could bring it altogether
someone on here put down the chords that are played all the way throught which
were perfect. i have also worked out the intro as well.
Intro riff
E|------------------4-----6-----
B|------7-7-7------4-4---6-6----
G|-----6-6-6-6----4-----6-------
D|----8-------------------------
A|---6--------------------------
E|---------------4-----6--------
the chords are simply as the other guy tabbed them.
D#m7
E|----6---6--x--9--9--9---6-----6---6-------------------------|
B|----7---7--x--7--7--7---7-----9---7-------------------------|
G|----6---6--x--6--6--6---6-----6---6-------------------------|
D|----8---8--x--8--8--8---8-----8---8-------------------------|
A|----6---6--x--6--6--6---6-----6---6-------------------------|
E|----6---6--x--6--6--6---6-----6---6-------------------------|
B C# D#m7
E|----2--2--x-2---4--4-x--------6---6--x--9--9--9---6-----6---6----|
B|----4--4--x-4---6--6-x--------7---7--x--7--7--7---7-----9---7----|
G|----4--4--x-4---6--6-x--------6---6--x--6--6--6---6-----6---6----|
D|----4--4--x-4---6--6-x--------8---8--x--8--8--8---8-----8---8----|
A|----2--2--x-2---4--4-x--------6---6--x--6--6--6---6-----6---6----|
E|----2--2--x-2---4--4-x--------6---6--x--6--6--6---6-----6---6----|
And the chorus riff is:
E|----------------------------------|----------------------------------|
B|14-14-14-11----------11-11----14--|14-14-14-11----------11-----------|
G|------------13-11----------13-----|------------13-11-------13-10-----|
D|------------------13--------------|------------------13----------13--|
A|----------------------------------|----------------------------------|
E|----------------------------------|----------------------------------|
E|----------------------------------|----------------------------------|
B|14-14-14-11----------11-----------|---------11-12-12-11----------12--|
G|------------13-11-------13-10-----|---10-13-------------11-11-13-----|
D|------------------13----------13--|13--------------------------------|
A|----------------------------------|----------------------------------|
E|----------------------------------|----------------------------------|
That all I got!





Ваше мнение



Капча