t. See http://www.olga.net/faq/ for more information. #
Date: Sun, 5 Dec 1999 20:46:25 -0500
From: "iago"
Subject: u/uriah_heep/wake_up.tab
Here's a very rough contribution to uriah heep's song
"wake up -set your sight-" (one of my favourite songs)
It's basically just some riffs that are played troughout the song.
Contact me for suggestions or corrections.
(it's very important for me, please..)
It's a very rough transcription..
Intro
Fm Gm G# A#m
e -------------------------------------------------------------------r
B -------------------------------------------------------------------e
G -------------------------------------------------------------------p
D ---------------1---------------3-------------------------------6---e
A ----------1-3-------------3-5------------4-6-8-----------6-8-------a
E ---1-3-4----------3-5-6-----------4-6-8-----------6-8-9------------t
Fm
e ---13----
B ---13----
G ---13----
D ---15----
A ---15----
E ---13----
Verse Fm Gm Cm C# Fm Cm A#m Fm
e --------13----15----8----9----13----8----6----1---- 1st Fm for 12 times
B --------13----15----8----9----13----8----6----1---- + 8
G --------13----15----8---10----13----8----6----1---- the other
D --------------------------------------------------- for 8 times
A ---------------------------------------------------
E ---------------------------------------------------
..so, if you listen the song, you have to play :
intro-verse-intro and than..
e ------------------6----------------2 guitar..I think...----------------r
B ------------------8----------------------------------------------------e
G ------------------8-------------------8----7----------------8----10----p
D ------------------8---------------10---10-------10-9--10---10----------e
A ------------------6----------------------------------------------------a
E --1-3-4-6-8-11-------(8-6-8)-------------------------------------------t
e ------------------8----------------------------------------------------r
B ------------------10---------------------------------------------------e
G ------------------10-----------------10----9-----------------10----12--p
D ------------------10-------------12----12-------12-11--12----12--------e
A ------------------8----------------------------------------------------a
E --1-3-4-6-8-13-------(10-8-10)-----------------------------------------t
t
Gm Fm Gm G#m F#m G#m - G# F# E F# G#m F# E
e -----3----1----3----4----2----4--------4----2----0----2----4----2----0--
B -----3----1----3----4----2----4--------4----2----0----2----4----2----0--
G -----3----1----3----4----2----4--------5----3----1----3----4----3----1--
D -----5----3----5----6----4----6--------6----4----2----4----6----4----2--
A -----5----3----5----6----4----6--------6----4----2----4----6----4----2--
E -----3----1----3----4----2----4--------4----2----0----2----4----2----0--
D#m
e ------------
B ------------
G ------------
D ----4-------
A ----6-------
E ----6-------
Finish
Fm Gm Cm C#
e --13-13-13-13-13--r --15-15-15-15-15--r --8-8-8-8-8--r --9-9-9-9-9--r
B --13--------------e --15--------------e --8----------e --9----------e
G --13--------------p --15--------------p --8----------p -10----------p
D ------------------e ------------------e -------------e -------------e
A ------------------a ------------------a -------------a -------------a
E ------------------t ------------------t -------------t -------------t
Fm Cm A#m Fm
e --13-13-13-13-13--r --8-8-8-8-8--r --6-6-6-6-6--r --1-1-1-1---3---
B --13--------------e --8----------e --6----------e --1---------1---
G --13--------------p --8----------p --6----------p --1---------1---
D ------------------e -------------e -------------e ----------------
A ------------------a -------------a -------------a ----------------
E ------------------t -------------t -------------t ----------------
Till the end..
Fm Gm Cm C# Fm Cm A#m Fm
e ---13---15---8----9----13---8-----6-----1----
B ---13---15---8----9----13---8-----6-----1----
G ---13---15---8----10---13---8-----6-----1----
D ---15---17---10---11---15---10----8-----3----
A ---15---17---10---11---15---10----8-----3----
E ---13---15---8----9----13---8-----6-----1----

Little solo..
e ---------13-13---------13-15/16-15------\15-13-----------------------
B --13-16----------13-16-------------------------16-13----13-13-13/14--
G ---------------------------------------------------------------------
D ---------------------------------------------------------------------
A ---------------------------------------------------------------------
E ---------------------------------------------------------------------
e ---------13-13----\15-13-----------------------------------------------
B --13-16------------------16-13-----13-16-13--------------16------------
G ---------------------------------------------15----15/17----17---------
D ----------------------------------------------------------------17\15--
A -----------------------------------------------------------------------
E -----------------------------------------------------------------------
e ------------------------------------------------------------------------
B ------------------------------------------------------------------------
G ------------------------------------------------------------------------
D --10-10-10/15---10-10-10\17---17-17-17\10---10-10-10\11---10-10-10\15---
A ------------------------------------------------------------------------
E ------------------------------------------------------------------------
e ------------------------------------------------------------------------
B ------------------------------------------------------------------------
G ------------------------------------------------------------------------
D --15-15-15\10----10-10-10\8----8-8-8\3----------------------------------
A ------------------------------------------------------------------------
E ------------------------------------------------------------------------
[email protected]




Ваше мнение



Капча