FREE ME
Uriah Heep
(Hensley)
Transcribed by Jibesh([email protected])
C D Bm Em
x 3 2 0 1 0 x x 0 2 3 2 x 2 4 4 3 2 0 2 2 0 0 0
F#m G A C(type 2)
2 4 4 2 2 2 3 5 5 4 3 3 5 7 7 6 5 5 x 3 2 0 1 x

Gsus4/B

x 2 0 0 1 x
b - bend
r - bend release


Guitar Intro:
D
e|-------------2----|
B|-------------3----|
G|-------------2----|
D|-------4-----0----|
A|-2-4-5---5-0------|
E|------------------|
(Free me...free me..)


Chorus:
D Bm
Free me, free me
Em
Why won't you free me
Bm
Free me from your spell
D
Come on and free me
Bm
Why won't you free me
Em
Come on and free me
Bm
Free me from your spell
Guitar Intro:
D
e|-------------2----|
B|-------------3----|
G|-------------2----|
D|-------4-----0----|
A|-2-4-5---5-0------|
E|------------------|
Verse:
D
Why should I worry
F#m
That you might not love me
G
You're not the only love
D
That I've ever had
F#m
Your sweet memory
Bm
Will always comfort me
G A
So why should I be feeling sad
verse:
As far as I can tell
You knew so well
I was always
At the end of the line
I've loved you as much
As any man can
But not enough
To make you mine
Bridge:
G F#m Em
So long, easy rider
C(type 2) Gsus4/B D
I know I'll miss you for awhile
G
But sooner or later
A Bm
I know that I'll forget you
And I tell you babe
Chorus:
Free me
Come on and free me
Why won't you free me
Free me from your spell
Oh babe, free me
Why won't you free me
Come on and free me
Free me from your spell
guitar intro:
e|-------------2----|
B|-------------3----|
G|-------------2----|
D|-------4-----0----|
A|-2-4-5---5-0------|
E|------------------|
Guitar Solo:
F#m G D
e|--------------------------------|
B|-7--8-10-12b14r12-----15--15-17-|
G|-------------------14-----------|
D|--------------------------------|
A|--------------------------------|
E|--------------------------------|
Double lead from here
F#m Em D
e|----------------------------|
B|-17b19r17-15----------------|
G|-------------16b18r16-14-11-|
D|----------------------------|




Ваше мнение



Капча