Date: Fri, 08 Mar 1996 06:02:53 +0100
From: Lukas Kamber
Subject: selfstyled - Urban Dance Squad
Song: selfstyled
Record: Persona Non Grata
Urban Dance Squad
This TAB transcription was created using TAB MASTER version 1.0
If you enjoy using this program, please consider telling the author
about it: Ofir Zwebner, e-mail: [email protected]
snail-mail: Ehoud 10, Tel Aviv, 69936, Israel
This program is freeware, but it took me some work to make it, so
your financial contribution is welcome.
--------------------------------------------------------------------
selfstyled (Urban Dance Squad)
Listen for the groove in this song, some chords are played really short, which
gives some kind of funky beat. We also tried to get the lyrics, which are quite
weird, but if your interested what we figured out, just send an e-mail, also if
you've some changes or comments.
Transcribed by
Lukas (Luesche) Kamber
[email protected]
Part I
e:-----X-X-------X-X--------X--------------------X-X-------X-X--------X------|
B:-----X-X-------X-X--5--5--X--7-----------------X-X-------X-X--5--5--X--7---|
G:-----X-X-------X-X--5--5--X--7-----5-----------X-X-------X-X--5--5--X--7---|
D:5/7-------5/7-------------------7--5------5/7-------5/7-------------------7|
A:--------------------------------7------------------------------------------|
E:3/5-------3/5-----------------------------3/5-------3/5--------------------|
Bridge
e:-----|-play-Part-I--|-----------------------------------------|
B:-----|-9-times------|-----------------------------------------|
G:--5--|--------------|-----------------------------------------|
D:-----|--------------|-10--10--9--9--9--9--7----7--7--5--4--2--|
A:-----|--------------|-10--10--9--9--9--9--7----7--7--5--4--2--|
E:-----|--------------|-8---8---7--7--7--7--5----5--5--3--2--0--|
e:------------------------(0)-(0)-(0)----------------------------------------|
B:-------------------------0---0---0-----------------------------------------|
G:-------------------------4---4---4-----------------------------------------|
D:-2--0--2--0------5------(2)-(2)-(2)-------2--0--2--0-----5-----------------|
A:-------------2---5---------------------2--------------2--5-----------------|
E:-----------------3--0------------------0-----------------3--X--0--3b(4)---0|
e:-----------------------(0)-(0)-(0)-----------------------------------------|
B:------------------------0---0---0------------------------------------------|
G:------------------------4---4---4---0--------------------------------------|
D:--2--0--2--0-----5-----(2)-(2)-(2)-----2--0--2--0-----5---------------2--0-|
A:--------------2--5---------------------------------2--5--------------------|
E:-----------------3--0---------------------------------3--0--3b(4)--0-------|
e:---------------------------------------------------------------------------|
B:----------------0------------------------------------------0---------------|
G:----------------2\1/2\1----------------------------------------------------|
D:-2--0-----5---------------2--0--2--0-------------------------2--0--2--0----|
A:-------2--5---------------------------2-5--------------------------------2-|
E:----------3--0--------------------------3--X--0--3b(4)--0------------------|
e:------------------------------------------|--------------------------|
B:------------------------------------------|--play-Part-I-and-Bridge--|
G:------------------------------------------|--------------------------|
D:-------X--9\---2--0--2--0-----------------|--------------------------|
A:-5--2--X--7\---------------2---------P-P--|--------------------------|
E:-3--0-------------------------3/8--3-4-5--|--------------------------|
e:---------------------------------------------------------------------------|
B:---------------------------------------------------------------------------|
G:---------------------------------------------------------------------------|
D:-2--0--2--0-----------X--9\--2--0--2--0------------------------2--0--2--0--|
A:-------------2--5--2--X--7\--------------2--0--5---------------------------|
E:----------------3--0---------------------------3--0--3b(4)--0--------------|
e:--------------0------------------------------------------------------------|
B:---------------------------------------------------------------------------|
G:---------2\1---------------------------------------------------------------|
D:-----------------2--0--2--0--------------------7--7--5--7--5--------10--7--|
A:2--5-------------------------2--5--2--5--2--5--7--------------7--5--10--7--|
E:---3--0-------------------------3--0--3--0--3--5--------------------8---5--|
e:---------------------------------------------------------------------------|
B:------5\------------------------------------------------------0--X--0------|
G:X--X--6\------------------------------------------------------4--X--4------|
D:X--X--7\--7--5--7--5---------------------2--0--2--0--------------------2--0|
A:X--X------------------7------------------------------2--5------------------|
E:-------------------------8--5--8b(9)--0-----------------3--0---------------|
e:---------------------------------------------------------------------------|
B:---------------------------------------------------------------------------|
G:------------------------------------------------7-7-7----------------------|
D:--2--0------------------7--5--7-----5--4--------7-7-7-------7--5--7------5-|
A:----------------P-P--------------5--------7--0-----------------------5-----|
E:--------5b(8)-3-4-5--5---------------------------------4/5-----------------|
e:---------------------------------------------------------------------------|
B:---------------------------------------------------------------------------|
G:----------7-7-7--------------------------------7-7-------------------------|
D:-4--------7-7-7--------7--5--7-----5--4--------7-7-------7--5--7-----5--4--|
A:----7--5------------------------5--------7--5---------------------5--------|
E:------------------4/5-------------------------------4/5--------------------|
e:----------|
B:----------|
G:---7------|
D:---7------|
A:7--5------|
E:----------|
[email protected]
Lukas (Luesche) Kamber
Student of Chemistry, University of Berne
[email protected]




Ваше мнение



Капча