-------------------------------------------------------------------
Unwritten Law - Up All Night
-------------------------------------------------------------------
Band: unwritten Law
Song: Up All Night
Album: Elva
Tuning: (Standard - EADGBe)
Rating: *****
Tabbed by: Eleven In A Row (Punk Band)
Intro
e|----------------------|
B|----------------------|
G|--6-6--6-9------------|
D|--6-6--6-9--4-4--4-7--| x3
A|--4-4--4-7--4-4--4-7--|
E|------------2-2--2-5--|
e|-------------------|
B|-------------------|
G|------------9-8-5--|
D|--6-7-6-7-6-9-8-5--| x1
A|--6-7-6-7-6-7-6-3--|
E|--4-5-4-5-4--------|
Verse
Guitar 2
e|------------------------------------------------|
B|------------------------------------------------|
G|--6-6--------------------6-6--------------------|
D|--6-6----7-7---9-9--6-6--6-6----7-7---9-9--9-9--|
A|--4-4----7-7---9-9--6-6--4-4----7-7---9-9--9-9--|
E|---------5-5---7-7--4-4---------5-5---7-7--7-7--|
[----------------------PM------------------------]
e|---------------------------------------------|
B|---------------------------------------------|
G|--6-6--------------------6-6-----------------|
D|--6-6----7-7---9-9--6-6--6-6----4-4--4-6--7--|
A|--4-4----7-7---9-9--6-6--4-4----4-4--4-6--7--|
E|---------5-5---7-7--4-4---------2-2--2-4--5--|
[------------PM--------------]
Verse guitar 1 (4 times)upstrokes
e|--4--4--4--4--5--5--7--4--|
b|--5--5--5--4--5--5--7--4--|
g|--6--6--6--6--6--6--8--5--|
d|--6--6--6--6--7--7--9--6--|
a|--4--4--4--4--7--7--9--6--|
E|--4--4--4--4--5--5--7--4--|
Guitar 2
e|------------------------------------------|
B|------------------------------------------|
G|--99999999--66666666--22222222--44444444--|
D|--99999999--66666666--22222222--44444444--| x 2
A|--77777777--44444444--00000000--22222222--|
E|------------------------------------------|
Guitar 1
e|----------------------------------------------------|
B|----------------------------------------------------|
G|--99999999--99999999--99999999--99999999--88888888--|
D|--99999999--99999999--99999999--99999999--88888888--| x 2
A|--77777777--77777777--77777777--77777777--66666666--|
E|----------------------------------------------------|
pre verse/post chorus (guitar 1)
e|--4--4--4--4--5--5--7--4--|--4--4--4--4-------------|
b|--5--5--5--4--5--5--7--4--|--5--5--5--4-------------|
g|--6--6--6--6--6--6--8--5--|--6--6--6--6-------------|
d|--6--6--6--6--7--7--9--6--|--6--6--6--6-------------|
a|--4--4--4--4--7--7--9--6--|--4--4--4--4--4-4-4/6-7--|
E|--4--4--4--4--5--5--7--4--|--4--4--4--4--2-2-2/4-5--|
Verse 2
Guitar 2
e|------------------------------------------------|
B|------------------------------------------------|
G|--6-6--------------------6-6--------------------|
D|--6-6----7-7---9-9--6-6--6-6----7-7---9-9--9-9--|
A|--4-4----7-7---9-9--6-6--4-4----7-7---9-9--9-9--|
E|---------5-5---7-7--4-4---------5-5---7-7--7-7--|
[----------------------PM------------------------]
e|---------------------------------------------|
B|---------------------------------------------|
G|--6-6--------------------6-6-----------------|
D|--6-6----7-7---9-9--6-6--6-6----4-4--4-6--7--|
A|--4-4----7-7---9-9--6-6--4-4----4-4--4-6--7--|
E|---------5-5---7-7--4-4---------2-2--2-4--5--|
[------------PM--------------]
Guitar 2
Play 8x
e|--------------|
B|--------------|
G|--9--6--2--4--|
D|--9--6--2--4--| x 2 (Obviously you play each chord a number of times)
A|--7--4--0--2--|
E|--------------|
Guitar 1
Play 8x
e|----------------|
B|----------------|
G|--9--9--9--9-8--|
D|----------------| x 2 (Same deal, play each octave a number of times)
A|--7--7--7--7-6--|
E|----------------|
Intro again
e|----------------------|
B|----------------------|
G|--6-6--6-9------------|
D|--6-6--6-9--4-4--4-7--| x3
A|--4-4--4-7--4-4--4-7--|
E|------------2-2--2-5--|
e|-------------------|
B|-------------------|
G|------------9-8-5--|
D|--6-7-6-7-6-9-8-5--| x1
A|--6-7-6-7-6-7-6-3--|
E|--4-5-4-5-4--------|
Bridge
Clean Guitar
e|----------|
B|------4---|
G|----5---5-|
D|--5-------| x 4
A|----------|
E|----------|
e|-----------------------------------|
B|------5-------9-------5-----9-7----|
G|----6---6---9---9---6---6-------9--|
D|--6-------9-------7-------9--------|
A|-----------------------------------|
E|-----------------------------------|
e|---------------------------|-----------|
B|------5-------9-------5----|-----------|
G|----6---6---9---9---6---6--|-----------|
D|--6-------9-------7--------|--9-9-6-6--|
A|---------------------------|--9-9-6-6--|
E|---------------------------|--7-7-4-4--|
[-Distorted-]
Guitar 2
e|------------------------------------------------|
B|------------------------------------------------|
G|--6-6--------------------6-6--------------------|
D|--6-6----7-7---9-9--6-6--6-6----7-7---9-9--9-9--|
A|--4-4----7-7---9-9--6-6--4-4----7-7---9-9--9-9--|
E|---------5-5---7-7--4-4---------5-5---7-7--7-7--|
[----------------------PM------------------------]
e|---------------------------------------------|
B|---------------------------------------------|
G|--6-6--------------------6-6-----------------|
D|--6-6----7-7---9-9--6-6--6-6----4-4--4-6--7--|
A|--4-4----7-7---9-9--6-6--4-4----4-4--4-6--7--|
E|---------5-5---7-7--4-4---------2-2--2-4--5--|
[------------PM--------------]
Verse guitar 1 (4 times)upstrokes
e|--4--4--4--4--5--5--7--4--|
b|--5--5--5--4--5--5--7--4--|
g|--6--6--6--6--6--6--8--5--|
d|--6--6--6--6--7--7--9--6--|
a|--4--4--4--4--7--7--9--6--|
E|--4--4--4--4--5--5--7--4--|
Guitar 2
e|------------------------------------------|
B|------------------------------------------|
G|--99999999--66666666--22222222--44444444--|
D|--99999999--66666666--22222222--44444444--| x 2
A|--77777777--44444444--00000000--22222222--|
E|------------------------------------------|
Guitar 1
e|----------------------------------------------------|
B|----------------------------------------------------|
G|--99999999--99999999--99999999--99999999--88888888--|
D|--99999999--99999999--99999999--99999999--88888888--| x 2
A|--77777777--77777777--77777777--77777777--66666666--|
E|----------------------------------------------------|
Intro again
e|----------------------|
B|----------------------|
G|--6-6--6-9------------|
D|--6-6--6-9--4-4--4-7--| x3
A|--4-4--4-7--4-4--4-7--|
E|------------2-2--2-5--|
e|-------------------|
B|-------------------|
G|------------9-8-5--|
D|--6-7-6-7-6-9-8-5--| x1
A|--6-7-6-7-6-7-6-3--|
E|--4-5-4-5-4--------|
Outro
e|-------------|
B|-------------|
G|--6-6-6-6-6--|
D|--6-6-6-6-6--|
A|--4-4-4-4-4--|
E|-------------|
End





Ваше мнение



Капча