-----------------------------------------------------------------------------
THE LEGEND OF JOHNNY AND SARAH - Unwritten Law
-----------------------------------------------------------------------------
Tabbed by: Extratarrestrial
Email: [email protected]

Tuning:EADGBE

INTRO: gtr 1
e|-0----1------1-----0----------------------0---1-----1-----0------------0---
B|---1----1------1-----1---3--------3---------1---1-----1-----1---3--------1-
G|----------------------------4--0-----4--0---------------------0---4--0-----
D|----------3-------3-------------------------------3-----3------------------
A|---------------------------------------------------------------------------
E|---------------------------------------------------------------------------

INTRO: gtr 2
e|---------------------------------------------------------------------------
B|---------------------------------------------------------------------------
G|--5-5---------5-5---------5-5---------5-5-----5-5--------------------------
D|--5-5--3-3-3--5-5--5-5-5--5-5--3-3-3--5-5-5-5-5-5--------------------------
A|--3-3--3-3-3--3-3--5-5-5--3-3--3-3-3--3-3-5-5-3-3--------------------------
E|-------1-1-1-------3-3-3-------1-1-1------3-3------------------------------

VERSE:
e|---------------------------------------------------------------------------
B|---------------------------------------------------------------------------
G|--5---10---5-------5---10---5-----5----------------------------------------
D|--5---10---5---5---5---10---5--5--5----------------------------------------
A|--3----8---3---5---3----8---3--5--3----------------------------------------
E|---------------3---------------3-------------------------------------------
p.m...................................(first time)

CHORUS BIT:
e|---------------------------------------------------------------------------
B|---------------------------------------------------------------------------
G|------5--------------------------------------------------------------------
D|----5-------5--3~~~~-3-----------------------------------------------------
A|--3-------5----3~~~~-3-----------------------------------------------------
E|--------3------1~~~~-1-----------------------------------------------------

thats all you really need to kno, anything u want to add or comment on email me





Ваше мнение



Капча