Artist: Unwritten Law
Song: Teenage Suicide
Tabbed By: Michael Gardiner
Made Better By: Britt Richards
yea just wanted to let you know that i took the tab that that other kid made and took
all the confusing stuff out and made it legible so people like me could read it. if you
leave bad feedback leave an email too dont be a little girl
Lead Fig1 Lead Fig2=20
e------------------------------- e-----------------------------------
B------------------------------- B-----------------------------------
G------------------------------- G-X/11----11-12-11-9-9h11-7---9h11-7
D--9--9-7-9--9-7-9--9-7-9--9-7-- D-----------------------------------
A------------------------------- A-----------------------------------
E------------------------------- E-----------------------------------
Rhythm Fig1 Rhythm Fig2
e------------------------------- e------------------------------------
B------------------------------- B------------------------------------
G------------------------------- G------------------------------------
D--9-9-9-9-9-9-9-9-9-9-9-9-9-9-- D-X/9------9--7-7--5-------5/9-2---2-
A--9-9-9-9-9-9-9-9-9-9-9-9-9-9-- A-X/9------9--7-7--5-------5/9-2---2-
E--7-7-7-7-7-7-7-7-7-7-7-7-7-7-- E-X/7------7--5-5--3-------3/7-0---0-
(just strum continuosly)
Lead Fig3
e-----------------------------------------------------------------------------=
B-----------------------------------------------------------------------------=
G-7----------7-----7----7--------------7-------7-----------7----------7-----9--
D---9-7-9------9-7--------9-7-9----7-9---9-------9-7-9-------9-7-9------9-7----
A-----------------------------------------------------------------------------=
E-----------------------------------------------------------------------------=
Rhythm Fig3
e---------------------------
B---------------------------
G---------------------------
D--9------9-5--5-7--7-------
A--9------9-5--5-7--7-------
E--7------7-3--3-5--5-------
P.M.
Rhythm Fig4
e-------------------------------------------------------------
B-------------------------------------------------------------
G--------4----4--------4--4-2--2--------4----4----------------
D-5----5-4----4-5----5-4--4-2--2-5----5-4----4-4-----------4--
A-5----5-2----2-5----5-2--2-0--0-5----5-2----2-4-----------4--
E-3----3--------3----3-----------3----3--------2-----------2--
P.M.
Lead Fig4
e---------14*----15*------------14*-----17*--
B-12*--------15*--------12*---------15*------
G--------------------------------------------
D--------------------------------------------
A--------------------------------------------
E--------------------------------------------
Then the Intro is: (starts just guitar and drums)
Lead Fig1 x 2=20
Lead Fig1 x 2=20
Rythm Fig 1 x 2
Lead Fig2 x 2
Rythm Fig2 x 2
And the Verses are: (Time rolling forward...)
Lead Fig3 x 1
Rhythm Fig3 x 2
And the Interludes are: (No place to hide(group)...)
Lead Fig2 x X
Rhythm Fig2 x X
And the Chorus' are: (I'm running out of time...)
Rhythm Fig4 x 1 (both guitars)
And the Bridge is: (just bass and drums and lead guitar)
Lead Fig4 x 1
thats about it(the end is an exact copy of the other tab i know)


Ваше мнение



Капча