t. See http://www.olga.net/faq/ for more information. #
Date: Fri, 31 Mar 2000 09:47:40 -0500
From: Paul
Subject: u/unwritten_law/shallow_intro.tab
Artist: Unwritten Law
Song: Shallow (intro)
Tabbed by: Paul Delgado ([email protected])
This version of the song SHALLOW, by unwritten law, can be found
on the Tonnage 2 Compilation. I wish I knew the chords to the
song... if any of you know how to play it, please email me:)

Intro:
E|-----------------------10---|-----------------------10-------|
B|-8--8---8-8-8-8---8-8-----8-|-8--8---8-8-8-8---8-8-----8-----|
G|----------------------------|--------------------------------|
D|----------------------------|--------------------------------|
A|----------------------------|--------------------------------|
E|----------------------------|--------------------------------|
E|-----------------------10---|----------------------------12-10|
B|-8--8---8-8-8-8---8-8-----8-|-10--10--10-10-10-10--10-10------|
G|----------------------------|---------------------------------|
D|----------------------------|---------------------------------|
A|----------------------------|---------------------------------|
E|----------------------------|---------------------------------|
If anybody has any additions, corrections, comments, questions, or
complaints, just email me.





Ваше мнение



Капча