----------------------------------------------------------------------------
Shallow (Acoustic) - Unwritten Law
----------------------------------------------------------------------------
Tabbed by: Bonk
Email:
Tuning: Half step down
Figure out strumming, intro is easy but chorus is a little hard to hear.
Intro/Verse
e|---3-----0-----0-----0----------------------------------------------------
B|---3-----0-----1-----3----------------------------------------------------
G|---0...--0...--0...--2...-------------------------------------------------
D|---0...--2...--2...--0...-------------------------------------------------
A|---2-----2-----3-----x----------------------------------------------------
E|---3-----0-----x-----x----------------------------------------------------
Chorus
e|---0-----0-----3-----0-----0-----0-----0-----3----------------------------
B|---1-----3-----3-----3-----0-----1-----3-----3----------------------------
G|---0...--2...--0...--0...--0...--0...--2...--0...-------------------------
D|---2...--0...--0...--0...--2...--2...--0...--0...-------------------------
A|---3-----x-----2-----0-----2-----3-----x-----2----------------------------
E|---x-----x-----3-----2-----0-----x-----x-----3----------------------------
Breakdown
e|---0-----0-----3-----0----------------------------------------------------
B|---0-----1-----3-----3----------------------------------------------------
G|---0...--0...--0...--2...-------------------------------------------------
D|---2...--2...--0...--0...-------------------------------------------------
A|---2-----3-----2-----x----------------------------------------------------
E|---0-----x-----3-----x----------------------------------------------------





Ваше мнение



Капча