Guitar I
E|-----------------------10---|-----------------------10-------|
B|-8--8---8-8-8-8---8-8-----8-|-8--8---8-8-8-8---8-8-----8-----|
G|----------------------------|--------------------------------|
D|----------------------------|--------------------------------|
A|----------------------------|--------------------------------|
E|----------------------------|--------------------------------|

E|-----------------------10---|----------------------------12-10|
B|-8--8---8-8-8-8---8-8-----8-|-10--10--10-10-10-10--10-10------|
G|----------------------------|---------------------------------|
D|----------------------------|---------------------------------|
A|----------------------------|---------------------------------|
E|----------------------------|---------------------------------|

Guitar II
E|-------------------------------|--------------------------------|
B|-------------------------------|--------------------------------|
G|-------------------------------|--------------------------------|
D|----5-5--5-5-5-5--5-5--5-5-5---|----2-2--2-2-2-2--2-2--2-2-2----|
A|----5-5--5-5-5-5--5-5--5-5-5---|----2-2--2-2-2-2--2-2--2-2-2----|
E|----3-3--3-3-3-3--3-3--3-3-3---|----0-0--0-0-0-0--0-0--0-0-0----|

E|-----------------------------------------|
B|-----------------------------------------|
G|-----------------------------------------|
D|---10-10--10-10-10-10--10-10--10-10-10---|
A|---10-10--10-10-10-10--10-10--10-10-10---|
E|---8--8---8--8--8--8---8--8---8--8--8----|

E|-----------------------------------------|
B|-----------------------------------------|
G|-----------------------------------------|
D|---12-12--12-12-12-12--12-12--12-12-12---|
A|---12-12--12-12-12-12--12-12--12-12-12---|
E|---10-10--10-10-10-10--10-10--10-10-10---|

listen to the song for strumming patterns.





Ваше мнение



Капча