Seein' Red-Unwritten Law
Elva

Tune down a half step:
Eb Ab Db Gb Bb Eb

( ) = harmonic

1st Verse: clean w/ chorus

Fig. 1

e------------------------------------------------------------------
b------------------------------------------------------------------
g-----0-----0---0-----0-----0---0-----0-----0---0-----0-----0---0--
d---4---4-----4-----4---4-----4-----4---4-----4-----4---4-----4----
a-3-------3-----------------------3-------3---------------2--------
e-----------------3-------3-----------------------0----------------

Fig. 2

e------------------------------------------------------------------
b------------------------------------------------------------------
g-----0-----0---0-----0-----0---0-----0-------0-------0-----0----0-
d---4---4-----4-----4---4-----4-----4---4---4---4---4---4-----4----
a-3-------3-----------------------5-------5-------5-------5--------
e-----------------3-------3----------------------------------------

Fig. 1, then

e------------------------------------------------------------------
b------------------------------------------------------------------
g-----0-----0---0-----0-----0---0--0-------------------------------
d---4---4-----4-----4---4-----4----4------------------7------------
a-3-------3------------------------5------------------5------------
e-----------------3-------3---------------------------5------------

Chorus:

e------------------------------------------------------------------
b------------------------------------------------------------------
g-5---5-5-5-----------------(5)---------------------------------5--
d-5---5-5-5---x-x--x--x---x-------5-5-5-5-5-5-5-5---5-5-5-5-5-5-5--
a-3---3-3-3---x-x--x--x---x-------5-5-5-5-5-5-5-5---5-5-5-5-5-5-3--
e-3---3-3-3---x-x--x--x---x-------3-3-3-3-3-3-0-3---3-3-3-0-3-3-3--

e---------------------------(12)-----------------------------------
b------------------------------------------------------------------
g-5-5-5-5-5-----------------(5)-----------------9-9-9-9-12-12-12-12
d-5-5-5-5-5---x-x--x-x----x------2--2-2-2-2-2-2-x-x-x-x--x--x--x--x
a-3-3-3-3-3---x-x--x-x----x------2--2-2-2-2-2-2-7-7-7-7-10-10-10-10
e-3-3-3-3-3---x-x--x-x----x------0--0-0-0-0-0-0--------------------

e------------------------------------------------------------------
b------------------------------------------------------------------
g-5---5-5-5-5-5-5-5-5-5-5-5-5-5-5----------------------------------
d-5---5-5-5-5-5-5-5-5-5-5-5-5-5-5-5-5-5-5-5-5-5-5---5-5-5-5-5-5----
a-3---3-3-3-3-3-3-3-3-3-3-3-3-3-3-5-5-5-5-5-5-5-5---5-5-5-5-5-5----
e-3---3-3-3-3-3-3-3-3-3-3-3-3-3-3-3-3-3-3-3-3-0-3---3-3-3-0-3-3-0--

e------------------------------------------------------------------
b---------------------------------7-7-7-7-7-7-7-7-7-10101010101010-
g-7-7-7-7-7-7-7-7-7-7-7-7-7-7-7-7-x-x-x-x-x-x-x-x-x-x-x-x-x-x-x-x--
d-0-0-0-0-0-0-0-0-0-0-0-0-0-0-0-0-4-4-4-4-4-4-4-4-4-7-7-7-7-7-7-7--
a------------------------------------------------------------------
e------------------------------------------------------------------

Solo/Interlude:

e------------------------------------------------------------------
b--------7h8--------------7h8--------------7h8----------0---7h8-7--
g7---0-------7-0--7---0-------7-0--7---0-------7-0--9-------------9
d------------------------------------------------------------------
a------------------------------------------------------------------
e------------------------------------------------------------------

e------------------------------------------------------------------
b--------7h8--------------7h8--------------------------------------
g7---0-------7-0--7---0-------7-0--7-------------------------------
d------------------------------------------------------------------
a------------------------------------------------------------------
e------------------------------------------------------------------

Outro:

e---------------------------------------2--------------------------
b-------1----------------3-------3-----3---------------------------
g-----0-----0---0------0-----0--------2----------------------------
d---2---------2------0---------0-----0-----------------------------
a-3----------------------------------------------------------------
e------------------3-----------------------------------------------

that's all...
i changed some of the positions of the chords, to make it easier.....and as always, c
opied right from guitar world

trevor jones
[email protected]





Ваше мнение



Капча