Song: Elva
Album:Elva
Artist:Unwritten Law
Tabbed By:Carly Ford

Normal Tuning

-------------------3-2-2-2---------------------3-2------
-------------------3-3-3-3---------------------3-3------
-2/4/2-0---------------------2/4/2-0--------------------
--------------------------------------------------------
----------3-3-3-3---------------------------------------
---------------------------------------3-3-3-3----------

--------------3-2----------------3-2--------------------
--------------3-3----------------3-3--------------------
---------------------2/4/2-0----------------------------
-2/4-2--------------------------------------------------
-------3-3-3--------------------------------------------
-----------------------------3--------------------------

--------------------------------------------------------
--------------------------------------------------------
-2/4-2--------------------------------------------------
-------3------------------------------------------------
--------------------------------------------------------
--------------------------------------------------------

Thats it.





Ваше мнение



Капча