CRAZY POWAY KIDS
Unwritten Law
INTRO:
G:--------------------------------------------------------------------------------------------------------
D:--------------------------------------------------------------------------------------------------------
A:-7-7-7-7-7-7--------------------------------------------------------------------------------------------
E:---------------7-7-7-7-7-7-9-9-9-9-9-9-4-4-4-4-4-4-5-5-5-5-5-5-7-7-7-7-7-7-12-12-12-12-12-12-5-5-5-7-7-7
1ST PART OF VERSE:
G:--------------------------------------------------------------------------------------------------------
D:--------------------------------------------------------------------------------------------------------
A:--7-7-7-7-7-7-------------------------------------------------------------------------------------------
E:----------------7-7-7-7-7-7-9-9-9-9-9-9-4-4-4-4-4-4-5-5-5-5-5-5-12-12-12-12-12-12-5-5-5-5-5-5-9-9-9-5-7-
2ND PART OF VERSE IS SAME AS THE INTRO
CHORUS:
G:----------------------------------------------------------------
D:----------------------------------------------------------------
A:----------------------------------------------------------------
E:-5-5-5-5-5-7-7-7-7-7-12-12-12-12-12-12-12-12-5-5-5-5-5-7-7-7-7-7:
OUTRO:
G:---------------------------------
D:-------------------------------
A:-7-7-7-7-7----------------------
E:--------------5-5-5-7-7--------
THAT'S BASICLY IT!!

Ben meyer [email protected]





Ваше мнение



Капча