t. See http://www.olga.net/faq/ for more information. #
From: "Di Gardiner"
Subject: u/unwritten_law/close_your_eyes.tab
Date: Sun, 9 May 1999 20:06:08 +0800
Artist Name: Unwritten Law
Song Title: Cailin
Album Title: Unwritten Law
Track Length: 3m:42s=20
Tabbed By: Michael Gardiner([email protected]
---------Close Your Eyes-----------
Okay, this song is heaps of fun to play, (well for me anyways).=20
It is played with typical UL distortion, phat, beefy and bassy, and =
don't ever turn it off:).=20
Standard tuning as usual. I'm missing the solo.. sorry.. so here it is.
h =3D Hammer (tap your finger on from the last note without strumming =
again)
/ =3D Slide Up (X/ =3D Slide from wherever)
\ =3D Slide Down (X\ =3D Slide from wherever)
5----5 =3D Play the note continuosly until it is time to change(instead =
of 5-5-5-5-5-5)
P.M =3D Palm Mute (Rest right(picking) hand over strings near bridge =
lightly, to mute strings)
* =3D Let Ring

Rhythm Fig1=20
e------------------------------
B------------------------------
G-------7---7-4-5-4-2-4-2------
D-5---5-7---7-------------5-5*-
A-5---5-5---5-2-3-2-0-2-0-5-5*-
E-3---3-------------------3-3*-

Rhythm Fig2
e------------------------------------------------------------------------=
B------------------------------------------------------------------------=
G-------7---7-4-4-5-5-------------7---7-5-5-7-7-9---9-------7---7-9-11-12*
D-5---5-7---7-4-4-5-5-5---5-5---5-7---7-5-5-7-7-9---9-5---5-7---7---------
A-5---5-5---5-2-2-3-3-5---5-5---5-5---5-3-3-5-5-7---7-5---5-5---5-7-9--10*-
E-3---3---------------3---3-3---3---------------------3---3----------------
-----------------
-----------------
------7---7-5---5
5---5-7---7-5---5
5---5-5---5-3---3
3---3------------
|___________| |__________|
P.M. P.M.
Rhythm Fig2 cont.
e-------------------
B-------------------
G-5---5-7-5-4-2-----
D-5---5 7-5-4-2-----
A-3---3-5-3-2-0-----
E-------------------

Fill Fig1 Rhythm Fig3 Fill Fig2
e------------------- e------------------ e-------------------------
B------------------- B------------------ B-------------------------
G--------------5---- G--------5--5-7--7- G-------------5*-4*-2*-7*-
D-5-5-5--5-5-5-5-5-- D-5----5-5--5-7--7- D-2*--5-5-5-5-5*-4*-2*-7*-
A-5-5-5--5-5-5-3-5-- A-5----5-3--3-5--5- A-2*--5-5-5-5-3*-2*-0*-5*-
E-3-3-3--3-3-3---3-- E-3----3----------- E-0*--3-3-3-3-------------
|_________________|
P.M.

Fill Fig3 Fill Fig4
e--------------------------- e-------
B--------------------------- B-------
G-------7---7-7-7-7-5-4h5-4- G-------
D-5---5-7---7--------------- D---5**-
A-5---5-5---5-5-5-5-3-2h3-2- A---5**-
E-3---3--------------------- E---3**-
The Intro/Chorus: (Close your eyeyeyeys...)
Rhythm Fig1 x 2
The Verse/Rhythm under solo:(There once was a kid...)
Rhythm Fig2 x 1
Interlude:(Life can get cut short...)
Fill Fig1 x 1
Rhythm Fig3 x 4
Fill Fig2 x 1
Last Chorus
Rhythm Fig1 x 2
Fill Fig3 x 1
Rhythm Fig1 x 1
Fill Fig4 x 1
Well, there it, get on stage and rip it out.. cos it is damn good fun:)
okay.. send all love/hate to [email protected]
Cheers
Mike.





Ваше мнение



Капча