t. See http://www.olga.net/faq/ for more information. #
From: "Di Gardiner"
Subject: u/unwritten_law/cailin.tab
Date: Sun, 9 May 1999 20:07:10 +0800
Artist Name: Unwritten Law
Song Title: Cailin
Album Title: Unwritten Law
Track Length: 3m:42s=20
Tabbed By: Michael Gardiner([email protected])
---------Cailin-----------
The song is played with a mainly clean tone, for the Verses and Intro.=20
The Chorus and the Interlude have the typical Unwritten Law phat, beefy =
distortion. it is palyed in standard tuning (EADGBE).=20
I'm sorry but I haven't tabbed the solo because I haven't worked it out =
properly yet, and anything I put down here will sound chronic.. soz.
h =3D Hammer (tap your finger on from the last note without strumming =
again)
/ =3D Slide Up (X/ =3D Slide from wherever)
\ =3D Slide Down (X\ =3D Slide from wherever)
5----5 =3D Play the note continuosly until it is time to change(instead =
of 5-5-5-5-5-5)
P.M =3D Palm Mute (Rest right(picking) hand over strings near bridge =
lightly, to mute strings)
* =3D Let Ring

Rhythm Fig1 Rhythm Fig2
G5 A5 B5 C5 G5 C5
e-------------------------------------- e---------------------
B---------------------------------0---- B-----------------0---
G-------0-------0-------0-------0------ G-----0*--------0-----
D-----0-------0-------0-------0-------- D-----0*------0-------
A-------------------------------------- A---------3-3---------
E-3-3-----5-5-----7-7-----8-8---------- E-3-3-----------------
|__________________________________| |___| |___|=20
P.M. P.M. P.M.

Rhythm Fig3=20
G5 A5 E5 C5 G5 A5 B5 C5=20
e------------------------------------------------------------------------=
B---------------------------------0-------------------------------------0=
G-------0-------0-------0-------0-------------0-------0-------0-------0--=
D-----0-------0-------0-------0-------------0-------0-------0-------0----=
A------------------------------------------------------------------------=
E-3-3-----5-5-----0-0-----8-8-----------3-3-----5-5-----7-7-----8-8------=
|_______________________________________________________________________|=
P.M.
Rhythm Fig4
C5 D5 G5 E5 C5 D5
e-------------------------------------------
B-------------------------------------------
G-5----5-7----7---------------5----5-7----7-
D-5----5-7----7-5----5-2----2-5----5-7----7-
A-3----3-5----5-5----5-2----2-3----3-5----5-
E---------------3----3-0----0---------------
Rhythm Fig5 Fill Fig1
E5 F#5 G5 G5=20
e------------------------- e---------------
B------------------------- B---------------
G------------------------- G-5----5-7----7-
D-2-2-2-2---4-5-5---5-5-5- D-5----5-7----7-
A-2-2-2-2---4-5-5---5-5-5- A-3----3-5----5-
E-0-0-0-0---2-3-3---3-3-3- E---------------
Rhythm Fig6
C5 D5 G5 E5 C5 D5
e---------------------------------------------------------
B---------------------------------------------------------
G-5----5-7----7---------------5----5-7----7---------------
D-5----5-7----7-5----5-2----2-5----5-7----7-2----2-5----5-
A-3----3-5----5-5----5-2----2-3----3-5----5-2----2-5----5-
E---------------3----3-0----0---------------0----0-3----3-

Fill Fig2
e-------------------
B-------------------
G-------------------
D-5-5-5-5-5-5-4-2*--
A-5-5-5-5-5-5-4-2*--
E-3-3-3-3-3-3-2-0*--
Here the Intro is:(Well it seemed life yesterday...)
Rhythm Fig1 x 4
Rhythm Fig2 x 4
The Verse is:('Til that day you came along...)
Rhythm Fig3 x 2
The First Chorus is:(Hey little girl...)
Rhythm Fig4 x 1
The Interludes are:=20
Rhythm Fig 2 x 4
The rhythm under the solo is:
Rhythm Fig1 x 4
The Bridge:(Whenever you're here...)
Rhythm Fig5 x 1
Fill Fig1 x 1
The Other Bridge:(I'll be allright, But I...)
Rhythm Fig 5 x 3
Fill Fig1 x 1
The Outro:
Fill Fig2 x 1
There ya have it..
All Love/hate to [email protected]
Cheers
Mike





Ваше мнение



Капча