T1: Graham Ludlow, [email protected], Unwritten Law, Cailin, ??

S1:
------------------------------------------------------------------------
CAILIN - Unwritten Law
------------------------------------------------------------------------

By: Peter M: [email protected]

INTRO:
PM |. ... ... ... ... ... ...|
e|----|---------------------------|-----------------|
B|----|---------------------------|-----------------|
G|----|-------------------------4-|--------------4--|
D|----|------5-----5-----5-----5--|------5------5---|
A|----|-----5-----5-----5-----5---|------5-----5----|
E|--0-|-3-3---5-5---7-7---8-8-----|--3-3---8-8------|
play 4X play 4X

VERSE:
PM |... ... ... ... ... ... ... ...
e|---------------------------------------------------------------------|
B|---------------------------------------------------------------------|
G|--------------------------4---------------------------4-- let ring
--|
D|-------5-----5-----5-----5-------5------5-----5------5---------------|
A|------5-----5-----5-----5-------5------5-----5------5----------------|
E|--3-3---5-5---0-0---8-8-----3-3----5-5---7-7----8-8------------------|

... ... ... ... ... ... ...|
e|---------------------------------------------------------|
B|---------------------------------------------------------|
G|---------------------------4--------------------------4--|
D|-----5------5------5------5-------5------5-----5-----5---|
A|--5-5------5------5------5-------5------5-----5-----5----|
E|--3----5-5----0-0----8-8-----3-3----5-5---7-7---8-8------|

CHORUS 1:
PM |............... ............... ............... ...............
e|----------------------------------------------------------------------|
B|----------------------------------------------------------------------|
G|--5-5-5-5-5-5-5-5--7-7-7-7-7-7-7-7------------------------------------|
D|--5-5-5-5-5-5-5-5--7-7-7-7-7-7-7-7--5-5-5-5-5-5-5-5--2-2-2-2-2-2-2-2--|
A|--3-3-3-3-3-3-3-3--5-5-5-5-5-5-5-5--5-5-5-5-5-5-5-5--2-2-2-2-2-2-2-2--|
E|------------------------------------3-3-3-3-3-3-3-3--0-0-0-0-0-0-0-0--|

............... ....... ... ... ... ...|

e|------------------------------------|-----------------|-------------------|
B|------------------------------------|-----------------|-------------------|
G|--5-5-5-5-5-5-5-5--7-7-7-7-7-7-5-4--|--------------4--|----------------4--|
D|--5-5-5-5-5-5-5-5--7-7-7-7-7-7-5-4--|------5------5---|------5-----5-X----|
A|--3-3-3-3-3-3-3-3--5-5-5-5-5-5-3-2--|------5-----5----|------5-----5-X----|
E|------------------------------------|--3-3---8-8------|--3-3---8-8--------|
play 3X

BRIDGE 1:
e|------------------------------------------------|
B|---------------------------------5--------7-----|
G|--------------------------------5-5------7-7----|
D|--2-2-2-2--2h4--5-5-5-5--5-5---5---5----7---7---|
A|--2-2-2-2--2h4--5-5-5-5--5-5--3-----3--5-----5--|
E|--0-0-0-0--0h2--3-3-3-3--3-3--------------------|

CHORUS 2:
e|----------------------------------------------------------------------|
B|----------------------------------------------------------------------|
G|--5-5-5-5-5-5-5-5--7-7-7-7-7-7-7-7------------------------------------|
D|--5-5-5-5-5-5-5-5--7-7-7-7-7-7-7-7--5-5-5-5-5-5-5-5--2-2-2-2-2-2-2-2--|
A|--3-3-3-3-3-3-3-3--5-5-5-5-5-5-5-5--5-5-5-5-5-5-5-5--2-2-2-2-2-2-2-2--|
E|------------------------------------3-3-3-3-3-3-3-3--0-0-0-0-0-0-0-0--|
| |
e|----------------------------------------------------------------------|
B|----------------------------------------------------------------------|
G|--5-5-5-5-5-5-5-5--7-7-7-7-7-7-7-7------------------------------------|
D|------------------------------------5-5-5-5-5-5-5-5--2-2-2-2-2-2-2-2--|
A|--3-3-3-3-3-3-3-3--5-5-5-5-5-5-5-5------------------------------------|
E|------------------------------------3-3-3-3-3-3-3-3--0-0-0-0-0-0-0-0--|

e|----------------------------------------------------------------------|
B|----------------------------------------------------------------------|
G|--5-5-5-5-5-5-5-5--7-7-7-7-7-7-7-7------------------------------------|
D|--5-5-5-5-5-5-5-5--7-7-7-7-7-7-7-7--2-2-2-2-2-2-2-2--5-5-5-5-5-5-5-5--|
A|--3-3-3-3-3-3-3-3--5-5-5-5-5-5-5-5--2-2-2-2-2-2-2-2--5-5-5-5-5-5-5-5--|
E|------------------------------------0-0-0-0-0-0-0-0--3-3-3-3-3-3-3-3--|
| |
e|----------------------------------------------------------------------|
B|----------------------------------------------------------------------|
G|--5-5-5-5-5-5-5-5--7-7-7-7-7-7-7-7--12~-12~-12~-12~--12~-12~-12~-12/--|
D|----------------------------------------------------------------------|
A|--3-3-3-3-3-3-3-3--5-5-5-5-5-5-5-5------------------------------------|
E|----------------------------------------------------------------------|

e|----------------------------------------------------------------------|
B|----------------------------------------------------------------------|
G|--5-5-5-5-5-5-5-5--7-7-7-7-7-7-7-7------------------------------------|
D|--5-5-5-5-5-5-5-5--7-7-7-7-7-7-7-7--5-5-5-5-5-5-5-5--2-2-2-2-2-2-2-2--|
A|--3-3-3-3-3-3-3-3--5-5-5-5-5-5-5-5--5-5-5-5-5-5-5-5--2-2-2-2-2-2-2-2--|
E|------------------------------------3-3-3-3-3-3-3-3--0-0-0-0-0-0-0-0--|
| |
e|----------------------------------------------------------------------|
B|----------------------------------------------------------------------|
G|-/17~-17~-17~--17-14~-14~-14~--14/-16~-16~-16~--16-12~-12~-12~--12/-|
D|----------------------------------------------------------------------|
A|----------------------------------------------------------------------|
E|----------------------------------------------------------------------|

e|----------------------------------------------------------------------|
B|----------------------------------------------------------------------|
G|--5-5-5-5-5-5-5-5--7-7-7-7-7-7-7-7------------------------------------|
D|--5-5-5-5-5-5-5-5--7-7-7-7-7-7-7-7--5-- let ring
---------------------|
A|--3-3-3-3-3-3-3-3--5-5-5-5-5-5-5-5--5---------------------------------|
E|------------------------------------3---------------------------------|
| |
e|----------------------------------------------------------------------|
B|----------------------------------------------------------------------|
G|-/17~-17~-17~--17/ 19~-19~-19~--19/-12- let ring
---------------------|
D|----------------------------------------------------------------------|
A|----------------------------------------------------------------------|
E|----------------------------------------------------------------------|

Don't know the SOLO.

BRIDGE 2:
e|-------------------------------------------------------|
B|-------------------------------------------------------|
G|-------------------------------------------------------|
D|--2-2-2-2--2h4--5-5-5-5--5-5-5--2-2-2-2--2h4--5-5-5-5--|
A|--2-2-2-2--2h4--5-5-5-5--5-5-5--2-2-2-2--2h4--5-5-5-5--|
E|--0-0-0-0--0h2--3-3-3-3--3-3-3--0-0-0-0--0h2--3-3-3-3--|

e|------------------------------------------------|
B|---------------------------------5--------7-----|
G|--------------------------------5-5------7-7----|
D|--2-2-2-2--2h4--5-5-5-5--5-5---5---5----7---7---|
A|--2-2-2-2--2h4--5-5-5-5--5-5--3-----3--5-----5--|
E|--0-0-0-0--0h2--3-3-3-3--3-3--------------------|

OUTRO (use first 3 bars from CHORUS 2 then play the following):
e|-------------------------------------|
B|-------------------------------------|
G|--5-5-5-5-5-5-5-5--7-7-7-7-7-7-7-7---|
D|--5-5-5-5-5-5-5-5--7-7-7-7-7-7-7-7---|
A|--3-3-3-3-3-3-3-3--5-5-5-5-5-5-5-5---|
E|-------------------------------------|
| |
e|-------------------------------------|
B|-------------------------------------|
G|-/17~-17~-17~--17-14~-14~-14~-14/---|
D|-------------------------------------|
A|-------------------------------------|
E|-------------------------------------|
play 2X

|--------------------------------------------------|
|--------------------------------------------------|
|--5-5-5-5-5-5-5-5--7-7-7-7-7-7-7-7----------------|
|--5-5-5-5-5-5-5-5--7-7-7-7-7-7-7-7----5-5---4--2--|
|--3-3-3-3-3-3-3-3--5-5-5-5-5-5-5-5---5-5-5--4--2--|
|------------------------------------3-------2--0--|

|--------------------------------------------------|
|--------------------------------------------------|
|-/17~-17~-17~--17/-19~-19~-19~--19-12~-----11----|
|--------------------------------------------------|
|--------------------------------------------------|
|--------------------------------------------------|





Ваше мнение



Капча