Blame it on me - Unwritten Law
Drop D tuning (DADGBe)
~ = Ring
= Harmonic
Pick as Fast as u can
e-------------------------------------|
B-------------------------------------|
G-------------------------------------|
D-1-1-1-1-1-1-1-----------------------|
A-1-1-1-1-1-1-1-----------------------|
D-1-1-1-1-1-1-1-----------------------|
Intro
e-------------------------------------|
B-------------------------------------|
G-------------------------------------|
D-1-4-6-7-6-4-6-7-1-------------------|
A-1-4-6-7-6-4-6-7-1-------------------|
D-1-4-6-7-6-4-6-7-1-------------------|
4th Time Play this
e-------------------------------------|
B-------------------------------------|
G-------------------------------------|
D-1-4-6-7-6-3-4-3-1-------------------|
A-1-4-6-7-6-3-4-3-1-------------------|
D-1-4-6-7-6-3-4-3-1-------------------|
Verse
e-------------------------------------------|
B-------------------------------------------|
G-------------------------------------------|
D-1~~~~~~~~~~~~1-4-6-7-1-4-6-7-1------|
A-1~~~~~~~~~~~~1-4-6-7-1-4-6-7-1------|
D-1~~~~~~~~~~~~1-4-6-7-1-4-6-7-1------|
e-------------------------------------|
B-------------------------------------|
G-------------------------------------|
D-1--1--1--1--1--1-1-1-1-1------------|
A-1--1--1--1--1--1-1-1-1-1------------|
D-1--1--1--1--1--1-1-1-1-1------------|
Intro
Chorus:
e-----------------------------------------------------------------|
B-----------------------------------------------------------------|
G-----------------------------------------------------------------|
D-1-1-1-1-1-1-1-1-6-6-6-6-6-6-6-6-4-4-4-4-4-4-4-4-8-8-8-8-8-8-8-8-|
A-1-1-1-1-1-1-1-1-6-6-6-6-6-6-6-6-4-4-4-4-4-4-4-4-8-8-8-8-8-8-8-8-|
D-1-1-1-1-1-1-1-1-6-6-6-6-6-6-6-6-4-4-4-4-4-4-4-4-8-8-8-8-8-8-8-8-|
e------------------------------------------------------------|
B------------------------------------------------------------|
G------------------------------------------------------------|
D-1-1--6-6--4-4--8-8-1-1-1-1-1-1-1-1-6-6-6-6-6-6-6-6-8~~~~---|
A-1-1--6-6--4-4--8-8-1-1-1-1-1-1-1-1-6-6-6-6-6-6-6-6-8~~~~---|
E-1-1--6-6--4-4--8-8-1-1-1-1-1-1-1-1-6-6-6-6-6-6-6-6-8~~~~---|
e-----------------------------------|
B-----------------------------------|
G-----------------------------------|
D-----------------------------------|
A-----------------------------------|
E-----------------------------------|
Intro
Verse
Chorus
Bridge
e-----------------------------------|
B-----------------------------------|
G-----------------------------------|
D-1-1-1-1--1-1-1-1--1-1-1-1-1-1-1-1-|
A-1-1-1-1--1-1-1-1--1-1-1-1-1-1-1-1-|
E-1-1-1-1--1-1-1-1--1-1-1-1-1-1-1-1-|
Pm. . . . . . . . . . . . . . . .
e-----------------------------------|
B-----------------------------------|
G-----------------------------------|
D-1-1-1-1--1-1-1-1--1-1-1-1-1-1-1-1-|
A-1-1-1-1--1-1-1-1--1-1-1-1-1-1-1-1-|
E-1-1-1-1--1-1-1-1--1-1-1-1-1-1-1-1-|
Pm. . . . . . . .
e-----------------------------------|
B-----------------------------------|
G----------------------------8-6-3--|
D-9-4-9-4-9-4-9-4-1~~~~~~~~~-X-X-X--|
A-9-4-9-4-9-4-9-4-1~~~~~~~~~-6-4-1--|
E-9-4-9-4-9-4-9-4-1~~~~~~~~~--------|
e-----------------------------------|
B-----------------------------------|
G----------------------------8-11-3-|
D-9-4-9-4-9-4-9-4-1~~~~~~~~~-X--X-X-|
A-9-4-9-4-9-4-9-4-1~~~~~~~~~-6--9-1-|
E-9-4-9-4-9-4-9-4-1~~~~~~~~~--------|
e-----------------------------------|
B-----------------------------------|
G-----------------------------------|
D-9-4-9-4-9-4-9-4-4~~~~~~~~~8~~~~~~-|
A-9-4-9-4-9-4-9-4-4~~~~~~~~~8~~~~~~-|
E-9-4-9-4-9-4-9-4-4~~~~~~~~~8~~~~~~-|
Chorus
Ending
e-------------------------------------|
B-------------------------------------|
G-------------------------------------|
D-8-6-4-3-1---------------------------|
A-8-6-4-3-1---------------------------|
D-8-6-4-3-1---------------------------|





Ваше мнение



Капча