-------------------------------------------------------------------------------
Nothing - Unloco
-------------------------------------------------------------------------------
Tabbed By : Dmal
e-mail:
Tuning:BEADG
5-STRING
intro
G----------------------------------------
D----------------------------------------
A----------------------------------------
E----------------------------------------
B------------0--------0--------0---------
I've got nothing....
G----------------------------------------
D----------------------------------------
A----------------------------------------
E----------------------------------------
B----0--------0--------0--------0--------
rhythm figure 1:
G----------------------------------------------------------
D----------------------------------------------------------
A----------------------------------------------------------
E----------------------------------------------------------
B----0--------0--------0--------0---0---1---1---1-1-3-3----
(2 times)
rhythm figure 2:
G----------------------------------------------------------------
D----------------------------------------------------------------
A----------------------------------------------------------------
E----------------------------------------------------------------
B----0---1--3--4----0---1--3--4----0---1--3--4---0---1--3-/-10--
(2 times)
chorus:
G---------------------------------------------------------------
D---------------------------------------------------------------
A---------------2--------------2--------------2-----------------
E--------1---1----------1---1----------1---1------1--1--2-2-2---
B----0--------------0--------------0----------------------------
(2 times)
bridge:
G------------------------------------------
D------------------------------------------
A------------------------------------------
E----7---------7---7-7----6---6---6-6-6-6--
B---------7------7-------------------------
(play 8 times)
outro:
G------------------------------------------------------------
D------------------------------------------------------------
A------------------------------------------------------------
E------------------------------------------------------------
B----0---0-0-0-----0---0-0-0-----0---0-0-0-----0---0-0-0-----
(play 8 times then out)
| / slide up
| slide down
| h hammer-on
| p pull-off
| ~ vibrato
| + harmonic
| x Mute note





Ваше мнение



Капча