Unloco - Face Down
Album: Healing
Tuning: B,F#,B,E,G#,C#
Tabbed By: Dean K. ([email protected])

Intro
|-------------------------------------------------------|
|-------------------------------------------------------|
|-------------------------------------------------------|
|-11-1111-9-9999-11-1111-9-9999-7-77-5-5555-7-77-5-5555-|
|--9--9-9-9-9999--9--9-9-9-9999-5-55-5-5555-5-55-5-5555-|
|--9--9-9-9-9999--9--9-9-9-9999-5-55-5-5555-5-55-5-5555-|

Verse
|---------------------------------------------------|
|---------------------------------------------------|
|---------------------------------------------------|
|-----11---11-------9---9-------7---7-------5---5---|
|---9----9----9---9---9---9---5---5---5---5---5---5-|
|-9-------------9-----------5-----------5-----------|

Chorus
|----------------------------------------------------------------|
|----------------------------------------------------------------|
|----------------------------------------------------------------|
|-9-999-999-999-999-999-99-10-101010-5-5-7-7777-77-11-11-11-11-11-|
|-9-999-999-999-999-999-99-10-101010-5-5-5-5555-55-11-11-11-11-11-|
|-9-999-999-999-999-999-99-10-101010-5-5-5-5555-55-11-11-11-11-11-|

Interlude
|-------------------------|
|-------------------------|
|-------------------------|
|-------------------------|
|------------9------------|
|-9-12-11-9----12-11-14-9-|

Outro
|----------------------------------|
|----------------------------------|
|----------------------------------|
|-----11---11---12---9---9-------7-|
|---9----9----9----9---9---9---5---|
|-9--------------------------5-----|





Ваше мнение



Капча