Artist: Unloco
Track : Drowning in it
Album : Becoming I
Tuning: Drop D, 1 1/2 Steps Down (B,F#,B,E,G#,C#)
Submitted By: Stand Alone ([email protected])
Verse
c#|----------------------|
g#|----------------------|
e |----------------------|
B |----------------------|
F#|--5-5-3-3-5-----8-----|
B |--5-5-3-3-5-5-8-8-8---|
Interlude
c#|--------|
g#|--------|
e |--------|
B |--XXX---|
F#|--XXX---|
B |--XXX---|
Chorus
c#|-----------------------------------------------|
g#|-----------------------------------------------|
e |-----------------------------------------------|
B |--2-2-22/9-999-99-95-555-55-5/12-121212-1212--|
F#|--2-2-22/9-999-99-95-555-55-5/12-121212-1212--|
B |--2-2-22/9-999-99-95-555-55-5/12-121212-1212--|
Or
c#|-----------------------------------------|
g#|-----------------------------------------|
e |---------4-444-44-4------------7-777-77--|
B |--2-2-22-4-444-44-4-5-555-55-5-7-777-77--|
F#|--2-2-22-2-222-22-2-5-555-55-5-5-555-55--|
B |--2-2-22------------5-555-55-5-----------|
Bridge
c#|-----------------------------------------|
g#|-----------------------------------------|
e |-----------------------------------------|
B |-2-2-22/4-44-444/5-55-55/7-77-77---------|
F#|-----------------------------------------|
B |-----------------------------------------|





Ваше мнение



Капча