-------------------------------------------------------------------------------
BRUISES - Unloco
-------------------------------------------------------------------------------

Tabbed by: DiStUrbED69
Email: [email protected]
This is an awsome song for the Matrix Relaoded Soundtrack,
its not really a 100%, but it sounds damn good when i play it.
Add heavy Distortion
Tuning:Drop D - DADGBE

Intro 1
e|--------------------------------------------------------------------------|
B|--------------------------------------------------------------------------|
G|--------------------------------------------------------------------------|
D|--3p2-2--2-3p2-2--2--2h3-3-3-3/5--5555------------------------------------|X2
A|--------------------------------------------------------------------------|
D|--------------------------------------------------------------------------|
Intro 2
e|--------------------------------------------------------------------------|
B|--------------------------------------------------------------------------|
G|--------------------------------------------------------------------------|
D|--3p2-2--2-3p2-2--2-3p2-2--2/10-10--------------------------------------|X2
A|--3p2-2--2-3p2-2--2-3p2-2--2/10-10--------------------------------------|
D|--3p2-2--2-3p2-2--2-3p2-2--2/10-10--------------------------------------|
Chorus
e|--------------------------------------------------------------------------|
B|--------------------------------------------------------------------------|
G|--------------------------------------------------------------------------|
D|--3p2-2--2-3p2-2--2-3p2-2--2/10-10--------------------------------------|X4
A|--3p2-2--2-3p2-2--2-3p2-2--2/10-10--------------------------------------|
D|--3p2-2--2-3p2-2--2-3p2-2--2/10-10--------------------------------------|
Verse
e|--------------------------------------------------------------------|
B|--------------------------------------------------------------------|
G|--------------------------------------------------------------------|
D|--------------------------------------------------------------------|
A|--3p2-2--2-3p2-2--2-3p2-2--2--2-3-0---------------------------------|
D|--3p2-2--2-3p2-2--2-3p2-2--2--2-3-0---------------------------------|
PM. XXX X X XXX X X XXX X X X X X
Keyboard part tabbed for the guitar - Pre-Chorus/Interlude
e|--------|
B|--------|
G|--------|
D|--3---2-|X2
A|--------|
D|--------|
Bridge
e|---------------------------------------------------------------------------|
B|---------------------------------------------------------------------------|
G|---------------------------------------------------------------------------|
D|-3-3-3-3-3--10-10--8-8--7-8-7---3p2-2-2h3-3--3/5-5-5---3p2-2-2h3-3--3/5-5-5|
A|---------------------------------------------------------------------------|
D|---------------------------------------------------------------------------|
That's It... enjoy
| / slide up
| slide down
| h hammer-on
| p pull-off
| x Mute note
===============================================================================





Ваше мнение



Капча