Tabbed by Ramms+ein4eva

E[-----------------------------------] [-------------------]
B[-0----0----0-0----0-0----0-0---0-0-] [---0-0----0-0----0-]
G[-9/11---11-----11-----11-----9-----] [12-----12-----12---]
D[-----------------------------------] [-------------------]
A[-----------------------------------] [-------------------]
E[-----------------------------------] [-------------------]

[----------------------------------------------------------]
[-0----0----0-0----0-0----0-0-----0-0-----0-0---0---0---0--]
[-9/11---11-----11-----11-----9/7-----7/9-----9---9---9----]
[----------------------------------------------------------]
[----------------------------------------------------------]
[----------------------------------------------------------]

Repeat this until intro ends, this is also the main riff,
only the chorus/chords are different

Ne questions, e-mail me at [email protected]





Ваше мнение



Капча