Auther/Artist:Uncle Kracker
Title:Drift Away
Transcribed by:Justin Harmon
Email:[email protected]
Intro:(Play Twice)
E-----4-------------0-0--------
B-4-7---7--2h4p2p0--0-0--------
G-------------------1-1--4-----
D-------------------2-2--4-----
A-------------------2-2--2-----
E-------------------0-0--------
Intro Fill:(Play on 2nd time)
E---------------------------------------
B-----19--------------------------------
G-18^-----18p16----16-16---16s----------
D---------------18----------------------
A---------------------------------------
E---------------------------------------





Ваше мнение



Капча