U2 Zooropa (BASS TAB)-----------------------------
Tabbed by Mark Linwood([email protected])
1/2 step downintro
g|---------|
d|---------|
a|---------|
E|-33-3-33-| A

g|---------------------|
d|---------------------|
a|-2-2-2-2-0-2-2-2---0-|
E|-----------------2---|
C

g|---------------------|
d|---------------------|
a|-5-5-5-5-3-5-5-5---3-|
E|-----------------5---| x2

Verse:
D
g|---------------------|
d|---------------------|
a|-7-7-7-7-5-7-7-7---5-|
E|-----------------7---|

The chords are all listed above the riffs just play
appropriate riff fot each chord E is just E (0 e string)
Intro: Riff1
Am-C-Am-C




Ваше мнение



Капча