Wild Honey
Album: All that you can't leave behind
Tab by Filipo Donati
The song starts with this:
e--------7-7s-5s--7-7s-5s-7--8--5--5--5-------------
B--------------------------------------------------- x2
G---------------------------------------------------
When Bono started Edge play this riff 1:
e--7---7---x---7---7---x---7---7----8----5---5---5---5-----
B--8---8---x---8---8---x---8---8----8----8---8---8---8-----
G--7---7---x---7---7---x---7---7----7----7---7---7---7-----
D----------------------------------------------------------
A----------------------------------------------------------
E----------------------------------------------------------
e--7---7---x---7---7---x---7---7----8----5---5---5---5-----
B--8---8---x---8---8---x---8---8----8----8---8---8---8-----
G--7---7---x---7---7---x---7---7----7----7---7---7---7-----
D----------------------------------------------------------
A----------------------------------------------------------
E----------------------------------------------------------
e--8---8---x---8---8---x---8---8---x----8----8---7---7---7--
B--8---8---x---8---8---x---8---8---x----8----8---8---8---8--
G--7---7---x---7---7---x---7---7---x----7----7---7---7---7--
D-----------------------------------------------------------
A-----------------------------------------------------------
E-----------------------------------------------------------
After that ther is the chorus with this chord:
Em C G D
And the riff:
e-----------------------------------------------------------
B--5-----12----10----10----12----3-----12----10----10----12-
G-----------------------------------------------------------
e-----------------------------------------------------------
B--5-----12----10----10----12----3-----12----10----10----12-
G-----------------------------------------------------------
Riff 1: (Here the chord are G D)

In the days when we were swinging from the trees

I was a monkey stealing honey from a swarm of bees

I could taste, I could taste you even then

And I would chase you down the wind

Riff 2: (Em C G D)
You could go there if you please, wild honey
And if you go there, go with me, wild honey
Riff 1:
Did I know you? did I know you even then?
Before the clocks kept time, before the world was made
From the cruel sun,
you were shelter You were my shelter and my shade
Riff 2:
If you go there, go with me, wild honey,
You can do just what you please, wild honey
Yeah, just blowing in the breeze, wild honey,
wild wild wild
Riff 1
I№m still standing, I№m still standing where you left me
Are you still growing wild, with everything tame around you?
I send you flowers, cut flowers for your hall
I know your garden№s full, but is there sweetness at all?
Am C Am C
oh oh oh
Riff 2:
If you go there, go with me, wild honey,
Wont you take me, take me please, wild honey
Yeah, swingin through the, wild honey,
wild wild wild
The song finish with the the riff 1.
For any question or correction:
[email protected]




Ваше мнение



Капча