Received: from nevada.edu (animal-farm.nevada.edu) by redrock.nevada.edu (5.65c/M1.4)
with SMTP id ; Wed, 2 Sep 1992 12:29:17 -0700
Received: from csd4.csd.uwm.edu by animal-farm.nevada.edu. id aa03838;
2 Sep 92 12:14 PDT
Received: by csd4.csd.uwm.edu; id AA12405; Wed, 2 Sep 92 14:14:33 -0500
Date: Wed, 2 Sep 92 14:14:33 -0500
From: "Scott A. Yanoff"
Message-Id:
To: [email protected], [email protected]
Subject: U2: Where the Streets Have No Name chords
U2
Where the Streets Have No Name (From the album "The Joshua Tree")
----- --- ------- ---- -- ----
These are the chords that you can use to make a nice acoustical version of
this song:
I want to run
D
I want to hide
I want to tear down the walls
That hold me inside
G
I want to reach out
Bm
And touch the flame
A
Where the streets have no name
Csus9
I want to feel, sunlight on my face
D
See that dust cloud disappear without a trace
G
I want to take shelter from the poison rain
Bm A
Where the streets have no name
Csus9
Chorus: (Tab for chords to be played, repeat below for each line of chorus)
-------
E-----------------------------------------------------------------------------
B-----10----8-----7-----------------------------------------------------------
G-----7-----7-----7-----------------------------------------------------------
D-----------------------------------------------------------------------------
A-----------------------------------------------------------------------------
E-----------------------------------------------------------------------------
Where the streets have no name
Where the streets have no name
We're still building then burning down love
Burning down love
And when I go there
I go there with you...
It's all I can do
The city's a flood
D
And our love turns to rust
We're beaten and blown by the wind
Trampled in dust
G
I'll show you a place
Bm
High on the desert plain
A
Where the streets have no name
Csus9
Where the streets have no name
Where the streets have no name
Still building then burning down love
Burning down love
And when I go there
I go there with you
It's all I can do
Our love turns to rust
D
And we're beaten and blown by the wind
G
Blown by the wind
Oh and I see love
D
See our love turn to rust
And we're beaten and blown by the wind
Blown by the wind
G
Oh when I go there
Bm
I go there with you
A
It's all I can do
D
Chord formations:
-----------------
D x x 0 2 3 2
G 3 2 0 0 3 3
Bm x x 4 4 3 2
A x x 2 2 2 0
Csus9 x x x 7 8 10
By the way, for those interested in Edge's nifty intro and ending, here it is
(he uses some delay/echo of course):
E-------------------10-----------------------------------------------------
B----------------10----11--------------------------------------------------
G-------12-11-12-----------------------------------------------------------
D--------------------------------------------------------------------------
A--------------------------------------------------------------------------
E--------------------------------------------------------------------------
(Repeat above riff many times, let ring.)
Intro tab ends with:
E--10-------10-----------10---------10-------10-------------------------------
B-----10-------10-----------10---------10-------10----------------------------
G--------12------12-----------12---------12-------12--------------------------
D-----------------------------------------------------------------------------
A-----------------------------------------------------------------------------
E-----------------------------------------------------------------------------
Ending tab ends with above two riffs and then (repeat 4 times):
E-10------10-----10-----10----------------------------------------------------
B---10------10-----10-----10--------------------------------------------------
G-----11------11-----11-----11------------------------------------------------
D-----------------------------------------------------------------------------
A-----------------------------------------------------------------------------
E-----------------------------------------------------------------------------




Ваше мнение



Капча