------------------------
When I look at the world
------------------------
Album: All that you can't leave behind
Tab by Filippo Donati
The intro with delay and little distrsion:
e--------------------------------------------------
B---10--9--7--7--7--7--7--7--5--5--5--5--5--5------
G----------7--7--7--7--7--7--2--2--2--2--2--2------
D--------------------------------------------------
e--------------------------------------------------
B-----7--7--7--7--7--9--9--9--9--9--9--------------
G-----7--7--7--7--7--9--9--9--9--9--9--------------
D--------------------------------------------------
After edge follow this chord with distorsion, A4 A
And afer F#m E:(fiff 1)
G--------------------------------------------------
D----7---7---7---7---7---7---7---7-----------------
A----5---5---5---5---7---7---7---7-----------------
E----5---5---5---5---5---5---5---5-----------------
G---------------------------------------------------
D----4---4---4---4---2---2---2---2------------------
A----4---4---4---4---2---2---2---2------------------
E----2---2---2---2---0---0---0---0------------------
A4 A
When you look at the world
A4 A
What is it that you see ?
A4 F#m
People find all kinds of things
E
That bring them to their knees
A4 A
I see an expression
A4 A
So clear and so true
A4 F#m
That it changes the atmosphere
E
When you walk into the room

Now this: (Riff 2)
e----------------------------------------------
B---12-/-14--12-/-14-----14--12--14--12-----
G----------------------------------------------
e----------------------------------------------
B---12-/-14--12-/-14-----14--12--14--12-----
G----------------------------------------------
e----------------------------------------------
B---12-/-14--12-/-14-----14--12--14--12-----
G----------------------------------------------
D A
So I try to be like you
D E
Try to feel it like you do
D A
But without you it's no use
E
I can't see what you see
Here re-start the riff1:
A4 A…………
When I look at the world
When the night is someone elses
And you're trying to get some sleep
When your thoughts are too expensive
To ever want to keep
When there's all kinds of chaos
And everyone is walking lame
You don't even blink now, do you
Or even look away

Solo: (with delay)
e--12------12-------/21--21--17--17--14--17--/19---
B----------------------------------------------------
G----------------------------------------------------
D----------------------------------------------------
A-------2---------2----------------------------------
E-------0---------0----------------------------------
e------17--16--12--14--19--21--19--------------------
B-----------------------------------------------------
G-----------------------------------------------------
D----------------------------------------------------
A-----------------------------------------------------
E-----------------------------------------------------
After the solo reperat the riif 2:
D A
I can't wait any longer
D E
I can't wait till I'm stronger
D A
Can't wait any longer
A
To see what you see
A4 A
When I look at the world
I'm in the waiting room
Can't see for the smoke
I think of you and your holy book
While the rest of us choke
Tell me, tell me, what do you see ?
Tell me, tell me, what's wrong with me
For any question write me at [email protected]




Ваше мнение



Капча