U2 Walk To the water (BASS TAB)
------------------------------------------
This was the B-side to With or Without You, And has
great sounding bass!
Verse/Chorus:
------
Tune Normally
Main riff
g|--------------|
d|--------------|
a|-3-5------5-3-|
E|-----5--5-----|

PRECHORUS:

g|--------------------------------------|
d|--------------------------------------|
a|-7-5--7-7--5-7-5-7--------------------|
E|--------------------5-3--5-5--3-5-3-5-|

That's pretty Simple song but sounds cool. HAve fun!
Tabbed by Mark Linwood
Hint suggesstions or comments to ([email protected])




Ваше мнение



Капча