This is a correction of an earlier submitted tab.
Author/Artist: U2
Title: Walk On
Email: [email protected]
Here are the chords that are used in the song
Dm C G D A G6 Em E Bm
-1-------------3------2------------------------------2-------------------------
-3------1-------------3-----2------------------------3-------------------------
-2--------------------2-----2------------------1-----4-------------------------
--------2-------------------2-----------2------2-----4-------------------------
--------3------2------------------2-----2------2-----2-------------------------
---------------3------------------3------------------2-------------------------
Intro
Dm C
And love Is not the easy thing
G
The only baggage that you can bring
Dm C
Love, Not the easy thing the only baggage you can bring
G
Is all that you can't leave behind
Guitar intro is also played over the chorus.
D A G6 Em
-------12------------12------------12------------12---------------------------
----10----10------10----10------10----10------10----10------------------------
-11------------11------------11------------11---------------------------------
------------------------------------------------------------------------------
------------------------------------------------------------------------------
------------------------------------------------------------------------------
D A G6 E
-------12------------12------------12------------12---------------------------
----10----10------10----10------10----10------12----12------------------------
-11------------11------------11------------13---------------------------------
------------------------------------------------------------------------------
------------------------------------------------------------------------------
------------------------------------------------------------------------------
Verse 1
D A G6 Em
And if the darkness is to keep us apart
D A G6 Em
And if the daylight feels like it's a long way off
D A G
And if your glass heart should crack
E D
And for a second you turn back
A E
Oh no, be strong
Chorus
D A
Walk on Walk on
G6
What you got, they can't steal it
Em
No they can't even feel it
D A
Walk on Walk on
G6 E
Stay safe tonight
Verse 2
You're packing a suitcase for a place none of us has been
A place that has to be believed to be seen
You could have flown away A singing bird
In an open cage
Who will only fly
Only fly for freedom
Chorus
Walk on Walk on
What you got you can't deny it
Can't sell it or buy it
Walk on Walk on
You stay safe tonight
D A
And I know it aches how your heart it breaks
E
You can only take so much
Bm G Em A
Walk on (guitar solo)
Bm G Em A
Walk on (guitar solo)
Verse 3
Home hard to know what it is if you never had one
Home I can't say where it is but I know I'm going
Home that's where the hurt is
D A
And I know it aches and your heart it breaks
E
You can only take so much
The close repeats the following chords:
Em G D A
Walk on
Leave it behind You've got to leave it behind
All that you fashion All that you make




Ваше мнение



Капча